Song name
# A B C D E F G H I J K L M N O P Q R S T U V W X Y Z

Nekromantix - Flowers Are Slow tab

-------------------------------------------------------------------------------
			    Flowers are slow - Nekromantix
-------------------------------------------------------------------------------
Tabbed by: Cpt.Frenchfries
Email:crazy_bazy@hotmail.de
Note: Don't forget that the intro and the Chorus are the same

Tuning:EADGBe
Guitar 1
e|---------------------------------------------------------------------------|
B|-----------------------------------------------------------5--5--5--5------|
G|-0-2-0-2--5-4-2-5-4-2-----0-2-0-2---5-4-2--5-4-2----0-2-0----2--2--2--2----|
D|---------------------------------------------------------------------------|
A|---------------------------------------------------------------------------|
E|---------------------------------------------------------------------------|
Guitar 2
e|----------------------------------------------------------------------------|
B|----------------------------------------------------------------------------|
G|---------------------5-5-5-5-5-5-5-5------------------------7-7-7-7-7-7-7-7-|
D|----7-7-7-7-7-7-7-7--5-5-5-5-5-5-5-5---5-5-5-5-5-5-5-5------7-7-7-7-7-7-7-7-|
A|----7-7-7-7-7-7-7-7--3-3-3-3-3-3-3-3---5-5-5-5-5-5-5-5------5-5-5-5-5-5-5-5-|
E|----5-5-5-5-5-5-5-5--------------------3-3-3-3-3-3-3-3----------------------|

Combine both together 

| /  slide up
| \  slide down
| h  hammer-on
| p  pull-off
| ~  vibrato
| +  harmonic
| x  Mute note
===============================================================================
Tap to rate this tab
# A B C D E F G H I J K L M N O P Q R S T U V W X Y Z