Song name
# A B C D E F G H I J K L M N O P Q R S T U V W X Y Z

Nekromantix - Who Killed The Cheerleader tab

Tabbed by: Sam Stephens 
Emailaddress: samsamsam88@hotmail.com 
Instrument: bass 


Pretty confident that these are perfect. If not it's just a typo.

Tuning: EADG, must be played on a coffin bass ;P

Intro: (not writing in triplets)







G|-----------------------------------------------------------------------|
D|----------------------1--------------1--1-1-1--------------------------|
A|1-3-3-3-3-3-3-3-3---3---1---1-3--3-3----------1------------------------|
E|--------------------------4---------------------4-4-4-4-4-4-1-1-1-1-1-1|



G|-----------------------------------------------------------------------|
D|-----------------------------------------------------------------------|
A|----------0-1-2--------------------------------------------------------|
E|1-1-2-3-4--------------------------------------------------------------|

1st chorus:

G|------------------0-3-0---0-3-0------0-1-0-----1---1---3---3-----------|
D|----------------1-------1--------0-3-------3-0---1---1---3---3---------|
A|3-3-3-3-3-3-3-3-----------------1--------------------------------------|
E|-----------------------------------------------------------------------|



G|--------0--------0-3-0---0-3-0-------0-1-0-----1---1---1---1-----------|
D|--1-3-4--4-3-1-1-------1---------0-3-------3-0---1---1---1---1---------|
A|3------------------------------1---------------------------------------|
E|-----------------------------------------------------------------------|



G|--2-3-4-5-4-3-2---2-3-4-5----------------------------------------------|
D|3---------------3------------------------------------------------------|
A|-----------------------------------------------------------------------|
E|-----------------------------------------------------------------------|

1st verse:

G|----0-1-----0-1---------------------0-1-----0-1------------------------|only
D|0-3-----0-3---------0-2-3-2-0---0-3-----0-3---------0-2---0-2-3--------|once
A|----------------0-3-----------3-----------------0-3-----1--------------|
E|-----------------------------------------------------------------------|



G|-----------------------------------------------------------------------|4x
D|0-3-0-3-0-3-0-3-----------2---2----------------------------------------|
A|----------------0-3-0-3-3---3------------------------------------------|
E|-----------------------------------------------------------------------|



G|----------------1---1---1---1---0-0-0-0-0-0-0-0--3---3---3---3---------|
D|3---3---3---3-----1---1---1---1--------------------3---3---3---3-------|
A|--3---3---3---3--------------------------------------------------------|
E|-----------------------------------------------------------------------|



G|1-1-1-1-1-1-1-1-0-0-0-0-0----------------------------------------------|
D|-----------------------------------------------------------------------|
A|-----------------------------------------------------------------------|
E|-----------------------------------------------------------------------|

2nd chorus:

G|------------------0-3-0---0-3-0--------------------1---1---3---3-------|
D|----------------1-------1-------(--0-3-0---0-3-0)----1---1---3---3-----|
A|3-3-3-3-3-3-3-3-----------------(1-------1------)----------------------|
E|-----------------------------------------------------------------------|
the rest is the same as the 1st chorus.
the part that is different is in parenthesis.

The rest is too long, and just variations of this and a key change,
but i'll write the outro up, even though it's pretty easy.
starting with the small instrumental bridge right after the key change

Oh yeah, at the end of the last chorus before the bridge,
during the key change, he is playing triplets instead of 
the root and 5th notes. Have a listen.


bridge:


G|---------------------------------------------------------------------------|
D|----0-2-3-4-5-6-7-6-5-4-3-2-1-0---------------------0-2-3-4-5-6-7----------|
A|0-3-----------------------------0-0-0-0-0-0-0-0-0-3------------------------|
E|---------------------------------------------------------------------------|


and finally:
G|----0-2-----0-2-----0-2-----------------------------------2-3-4-5-4-3-2----|
D|0-3-----0-3-----0-3-----5-5-----5-5-----5-5-----5-5-----3------------------|
A|----------------------------5-5-----5-5-----5-5-----5-5--------------------|
E|---------------------------------------------------------------------------|



G|--2-3-4-5-4-3-2-3---3---3---3---2---2---2---2------------------------------|
D|3-----------------3---3---3---3---2---2---2---2----------------------------|
A|---------------------------------------------------------------------------|
E|---------------------------------------------------------------------------|
He does a bunch of variations of this last part too.
It's fun just to make stuff up while playing with it.
Have fun.
Tap to rate this tab
# A B C D E F G H I J K L M N O P Q R S T U V W X Y Z