Song name
# A B C D E F G H I J K L M N O P Q R S T U V W X Y Z

Nekromantix - Love At First Bite tab

LOVE AT FIRST BITE by Nekromantix


Intro: (delay-effect)

E|--------0-----|
B|------6-5-----|
G|----7---------|  (Play 4 times)
D|-0------------|
A|--------------|
E|--------------|


Theme:

   Dm                 A7          Dm                 A7
E|------------------|-----------|------------------|----------------|
B|----5h6-\8--6p5---|-----------|----5h6-\8--6p5---|----------2---2-|
G|-7--------------6-|-4\2-------|-7--------------6-|-4\2-0--2---2---|  (repeat once)
D|------------------|-----5brb--|------------------|----------------|  
A|------------------|-----------|------------------|----------------|
E|------------------|-----------|------------------|----------------|

Dm
Neither wolf nor man art thou
A7
Conqueror of time
Dm                      A7
Thy love has given me a sign
Dm                       A7
Before me thou kneelest, impaler of my heart
Dm                   A7
Maketh me the devils, the devils concubine

(Theme)

Bb              C                 Dm
  Two different worlds, parted forever
Bb                C
Take me away from all this death
Dm                 Dm/B
I want to see what you see
Bb            C                Dm     Dm/B
Love at first bite, we'll be together
   Bb                C            Dm       
Forever and ever and ever, eternally

(Theme)

    Dm                   A7
And as the time goes by, ooh I realize
Dm                          A7
Thy will is where I wouldst be
   Dm                       A7
At night asleep I sigh, wet dreams so sinister
Dm                      A7             Dm   
Cometh my prince of darkness, hither to me

(Theme)


Two different worlds...

(Solo)

Two different worlds...
Tap to rate this tab
# A B C D E F G H I J K L M N O P Q R S T U V W X Y Z