Song name
# A B C D E F G H I J K L M N O P Q R S T U V W X Y Z

Nekromantix - Always And Never tab

ALWAYS AND NEVER by Nekromantix

Intro I (Play 4 times)
E|-------------------|-------------------------|
B|-------------------|-------------------------|
G|-------------------|-------------------------|
D|---2---1~--1-----0-|-----0-----0-----0-----0-|
A|-0---0-------0h3---|-0h3---0h3---0h3---0h3---|
E|-------------------|-------------------------|


Intro II (Play 4 times)
E|-------------------|-----------------------|
B|-------------------|-----------------------|
G|-------------------|-----------------------|
D|---2---1~--1-----0-|-----0-----0-----0-3---|
A|-0---0-------0h3---|-0h3---0h3---0h3---3---|
E|-------------------|-------------------1---|


|A5| - |C5 - D5| - |A5| - |C5 - E5|

|A5| - |C5 - D5| - |A5| - |C5 - E5|

Riff A

   A5                  C5          D5            A5                  C5          E5 
E|-------------------|-------------------------|-------------------|-------------------------|
B|-------------------|-------------------------|-------------------|-------------------------|
G|-------------------|-------------------------|-------------------|-------------------------|
D|---2---1~--1-----0-|-----0-----0-----0-----0-|---2---1~--1-----0-|-----0-----0-----0-----0-|
A|-0---0-------0h3---|-0h3---0h3---0h3---0h3---|-0---0-------0h3---|-0h3---0h3---0h3---0h3---|
E|-------------------|-------------------------|-------------------|-------------------------|


A               Fmaj7
In the woods at night
A                   Fmaj7
Oh no it don't seem right
A                    Fmaj7
No no, never go out alone
A                              Fmaj7
'Cause it's always happy for a bone
A               Fmaj7
You must be sure to keep away
A                         Fmaj7
if you wanna live to see another day

A5                    C5    D5
You should always be aware
A5                        C5    E5
Go challenge faith if you dare
A5                    C5    D5
You should always be aware
A5                        C5    E5
Go challenge faith if you dare


A5   C5         D5
     No more forever
A5   C5         E5
     Always and never
A5   C5         D5
     No more forever
A5   C5         E5         Riff A
     Always and always and never


You never know when it shows
but you will always know
when it is much too late
It's not, not looking for a date
You must be sure to keep away
if you wanna live to see another day

You should always be aware...

No more forever...

(Riff A)

No more forever... (played twice)

(Riff A)
Tap to rate this tab
# A B C D E F G H I J K L M N O P Q R S T U V W X Y Z