Song name
# A B C D E F G H I J K L M N O P Q R S T U V W X Y Z

Nekromantix - Devil Smile tab

DEVIL SMILE by Nekromantix


Intro

E|---------------------|---------------------|---------------------|---------------------|
B|---------------------|---------------------|---------------------|---------------------|
G|-4-------------------|-4-------------------|-4-------------------|-4-------------------|
D|-4---2---4-5---4-2---|-4---2---4-5---4-2---|-4---2---4-5---4-2---|-4---2---4-5---4-2---|
A|-2---2---4-5---4-2---|-2---2---4-5---4-2---|-2---2---4-5---4-2---|-2---2---4-5---4-2---|
E|-----0---2-3---2-0---|-----0---2-3---2-0---|-----0---2-3---2-0---|-----0---2-3---2-0---|


Main Riff

   A                     G             D               A                    
E|---------------------|-----------------------------|---------------------|
B|---------------------|-----------------------------|---------------------|
G|---------------------|-----------------------------|---------------------|
D|-7--------5----------|-5---------------------------|-7--------5----------|
A|-7--5h6h7----7-6p5p0-|-5-------------5--5-5-5-3-0--|-7--5h6h7----7-6p5p0-|
E|-5-------------------|-3--3-3-3-2-0----------------|-5-------------------|

   G             D
E|-----------------------------|
B|-----------------------------|
G|-----------------------------|
D|-5---------------------------|
A|-5-------------5--5-5-5-3-0--|
E|-3--3-3-3-2-0----------------|


A                G             D
Heathen thoughts burning in my head
A                  G               D
Creeps of darkness drink my bloody sweat
A            G                    D
Wicked women trapped in black and grey
A                     G         D
While bleeding demons carry me away 

A5                   
Laughing at the way the woodworlds skimming through their painless night 
C5
Live life full until the bitter end and walk the wired side high 
E5
Credits from your better days might even buy you extra time 
D#5                    F#5
My life is over now so everybody dies 

B5                              A5
Give a damn about life I'm born wild
B5                        A5
Gonna reach the sky for a while 
B5                           A5
Give a damn about style born wild
B5                           A5
Not afraid to die cause I've seen the devil smile 

(Main riff)

A             G             D
Naked dwarves multiply with rats
A               G                 D
Crippled corpse kissed by vampire bats 
A            G            D
Iron breezes rolling in a spind 
A               G               D
Unborn diseases spread out with wind 

A5
Out of nowhere rolls a thunder from an empty sky
C5
Nothing really makes me wonder death ain’t hard to justify 
E5
I have tasted lips of glory in those years I left behind
    D#5                    F#5
But my life is over now so everybody dies 

B5                              A5
Give a damn about life I'm born wild
B5                        A5
Gonna reach the sky for a while 
B5                           A5
Give a damn about style born wild
B5                           A5
Not afraid to die cause I've seen the devil smile 


   Bm                                                      D
E|---------------------------|---------------------------|---------------------------|
B|-0--0--0-0-0--10--0-9--0-0-|-0--0--0-0-0--10--0-9--0-0-|--------------10----9------|
G|---------------------------|---------------------------|-7-7--7-7-7-------7----7-7-|
D|---------------------------|---------------------------|---------------------------|
A|---------------------------|---------------------------|---------------------------|
E|---------------------------|---------------------------|---------------------------|

                              E             
E|--------------------------|---------------------------|---------------------------|
B|-------------10----9------|--------------10----9------|--------------10----9------|
G|-7-7--7-7-7------7----7-7-|-9-9--9-9-9-------9----9-9-|-9-9--9-9-9-------9----9-9-|
D|--------------------------|---------------------------|---------------------------|
A|--------------------------|---------------------------|---------------------------|
E|--------------------------|---------------------------|---------------------------|


   F#m
E|---------------------------|---------------------------|
B|-7--7--7-7-7--10--7-9--7-7-|-7--7--7-7-7--10--7-9--7-7-|
G|---------------------------|---------------------------|
D|---------------------------|---------------------------|
A|---------------------------|---------------------------|
E|---------------------------|---------------------------|


Give a damn about life I'm born wild...


(Main riff)


(Solo over verse and bridge pattern)


Give a damn about life I'm born wild...


   Bm                                                      D
E|---------------------------|---------------------------|---------------------------|
B|-0--0--0-0-0--10--0-9--0-0-|-0--0--0-0-0--10--0-9--0-0-|--------------10----9------|
G|---------------------------|---------------------------|-7-7--7-7-7-------7----7-7-|
D|---------------------------|---------------------------|---------------------------|
A|---------------------------|---------------------------|---------------------------|
E|---------------------------|---------------------------|---------------------------|

                              E             
E|--------------------------|---------------------------|---------------------------|
B|-------------10----9------|--------------10----9------|--------------10----9------|
G|-7-7--7-7-7------7----7-7-|-9-9--9-9-9-------9----9-9-|-9-9--9-9-9-------9----9-9-|
D|--------------------------|---------------------------|---------------------------|
A|--------------------------|---------------------------|---------------------------|
E|--------------------------|---------------------------|---------------------------|


   F#m
E|---------------------------|---------------------------|
B|-7--7--7-7-7--10--7-9--7-7-|-7--7--7-7-7--10--7-9--7-7-|
G|---------------------------|---------------------------|
D|---------------------------|---------------------------|
A|---------------------------|---------------------------|
E|---------------------------|---------------------------|



|Bm| - |Bm| - |D| - |D| - |E| - |E| - |F#m| - |F#m|

(this chord progression continues till the end of the song)  
Tap to rate this tab
 
# A B C D E F G H I J K L M N O P Q R S T U V W X Y Z