Song name
# A B C D E F G H I J K L M N O P Q R S T U V W X Y Z

Nekromantix - Black Wedding tab

The other tab for this song was a little off, looked like the guys tuning was
a little off, anyway this is 100%
Tuning: Standard

Verse (Repeat 2 times)
e|---------------------------------------------------------------------------|
B|---------------------------------------------------------------------------|
G|---------------------------------------------------------------------------|
D|-----2--------------2------------------------------------------------------|
A|--0-----3--5--2--0-----3--5--3--2--3--2--------2--3--2---------------------|
E|-----------------------------------------3--2-----------3--2---------------|


e|---------------------------3--2--0-----------3--2--0-----------------------|
B|---------------------------3--2--0-----------3--2--0-----------------------|
G|---------------------------3--2--0-----------3--2--0-----------------------|
D|---------------------------5--4--2-----------5--4--2-----------------------|
A|--2--3--2--------2--3--2---5--4--2---2h3--2--5--4--2---2h3--2--------------|
E|-----------3--2------------3--2--0-----------3--3--0-----------------------|


On the part just before the bar chords it sounds like there is a bend or something,
listen to the song to figure it out.
Tap to rate this tab
# A B C D E F G H I J K L M N O P Q R S T U V W X Y Z