Song name
# A B C D E F G H I J K L M N O P Q R S T U V W X Y Z

Nekromantix - Cave Canem tab

Tabbed by: Werecat_FTW
Artist: Nekromantix
Song: Cave Canem (Intro)
Album: Life Is A Grave & I Dig It

When I play this I usually use the whammy bar to play the duplicate notes. I also slide alot.
Only had enough time to put the intro up, whole song will up later.

 /   slide up

e|-------------------------------------------------------------------------|
B|-------------------------------------------------------------------------|
G|--/7--7--7---7--9--10-10-10--10-9--10-9--5--5---5/10-10-12---12--10-9--7-|
D|-------------------------------------------------------------------------|
A|--/5--5--5---5--7--8--8--8---8--7--8--7--3--3---3/8--8--10---10--8--7--5-|
E|-------------------------------------------------------------------------|
                              Don't play this note  ^



e|-------------------------------------------------------------------------|
B|-------------------------------------------------------------------------|
G|--/7--7--7---7--9--10-10-10--10-9--10-9--5--5---5/10-10-12---12--10-9--7-|
D|-------------------------------------------------------------------------|
A|--/5--5--5---5--7--8--8--8---8--7--8--7--3--3---3/8--8--10---10--8--7--5-|
E|-------------------------------------------------------------------------|
                              Don't play this note  ^

                                    OR

In the track it sort of sounds like this note is also present
                                                 V
e|---------------------------------------------------------------------------|
B|---------------------------------------------------------------------------|
G|--/7--7--7---7--9--10-10-10--10-9--10-9--5--5--7--5/10-10-12---12--10-9--7-|
D|---------------------------------------------------------------------------|
A|--/5--5--5---5--7--8--8--8---8--7--8--7--3--3--5--3/8--8--10---10--8--7--5-|
E|---------------------------------------------------------------------------|
                                Don't play this note  ^
Tap to rate this tab
# A B C D E F G H I J K L M N O P Q R S T U V W X Y Z