Guitaretab - guitar tabs
Song name
# A B C D E F G H I J K L M N O P Q R S T U V W X Y Z

Nelly Furtado - Promiscuous tab

Promiscuous
By Nelly Furtado

The Verses:  Repeat like a billion times

e:---------1----------------------------------------|
B:-2---2------4-4-2---------------------------------|
G:---3---3------------------------------------------|
D:--------------------------------------------------|
A:--------------------------------------------------|
E:--------------------------------------------------|

The Chorus: repeated 4 times
[ Tab from: http://www.guitaretab.com/n/nelly-furtado/74335.html ]
e:---------------------------------------------|
B:---------------------------------------------|
G:---------------------------------------------|
D:---------------------------------------------|
A:-----6---9-8---4-----------------------------|
E:-6---------------6---------------------------|


I prefer to play the verses with chords

Bbm              Ebm
Promiscuous girl
                     Gb Bbm
Wherever you are
          Bbm Gb
Iím all alone
                           Bbm
And it's you that I want

                   Ebm
Promiscuous boy
                     Gb Bbm
You already know
                   Bbm Gb
That Iím all yours
                         Bbm
What you waiting for?

                   Ebm
Promiscuous girl
                     Gb Bbm
You're teasing me
                       Bbm Gb
You know what I want
                             Bbm
And I got what you need

Promiscuous boy
Let's get to the point
Cause we're on a roll
You ready?
Related for Promiscuous tab