Song name
# A B C D E F G H I J K L M N O P Q R S T U V W X Y Z

Nelly Furtado - Te Busque tab

-------------------------------------------------------------------------------
			     Te Busque - Nelly Furtado
-------------------------------------------------------------------------------
Tabbed by: danabrey
Email: danabrey AT gmail.com

Tuning: standard

E|--6-----------6-----------6-----------6--------------|
B|-----------8-----------8-----------8-----------8-----|
G|--------7-----------7-----------7-----------7--------|
D|-----8-----------8-----------8-----------8-----------|
A|-----------------------------------------------------|
E|-----------------------------------------------------|

E|-5-------5-------3-------2---|
B|-------7-------7-------4-----|
G|-----7-------7-------5-------|
D|---7-------7-------5---------|
A|-----------------------------|
E|-----------------------------|
Tap to rate this tab
 
# A B C D E F G H I J K L M N O P Q R S T U V W X Y Z