Song name
# A B C D E F G H I J K L M N O P Q R S T U V W X Y Z

Nelly - Over And Over tab

-------------------------------------------------------------------------------
			     OVER AND OVER - Nelly (Ft. Tim McGraw
-------------------------------------------------------------------------------
Tabbed by: silentmage
Email: 0silentmage0@gmail.com
Tuning: Standard


Play this throughout the entire song

e----------------------------------------------------------------------------|
B----------------------------------------------------------------------------|
G--------------------------------------------------0----------------0--------|
D------4h5-5p4----------4h5-5p4----------5p4---4----------5p4---4------------|
A----5---------5------5---------5------5-----5---5------5-----5---5----------|
E--3----------------3----------------0----------------0----------------------|

this is played during the chorus under the main riff
e-------------10--7b---------------------------------------------------------|
B--3h5---8--------------10h8-8-10h8-8-8-----10b-10-10b-----------------------|
G----------7-----------------------------------------------------------------|
D----------------------------------------------------------------------------|
A----------------------------------------------------------------------------|
E----------------------------------------------------------------------------|
Tap to rate this tab
# A B C D E F G H I J K L M N O P Q R S T U V W X Y Z