Song name
# A B C D E F G H I J K L M N O P Q R S T U V W X Y Z

Nelly - Just A Dream tab

play it how you like

       
e| |----------------------|
B| |----------------------|
G| |---8----4---------6---|
D| |---8x8--4x8--4----6x8-|
A| |---6----2----4x8--4---|
E| |-------------2--------|


e| |---6----2----2----4---|
B| |---7----4----2----6---|
G| |---8----4----3----6---|
D| |---8x8--4x8--4----6x8-|
A| |---6----2----4x8--4---|
E| |--(6)--(2)---2---(4)--|  notes in () are optional



Capo on 1st fret:

e| |---1----1----1----0---|
B| |---3----3----1----1---|
G| |---2----3----2----0---|
D| |---0----3----3----2---|
A| |------------------3---|
E| |----------------------|
Tap to rate this tab
 
# A B C D E F G H I J K L M N O P Q R S T U V W X Y Z