Song name
# A B C D E F G H I J K L M N O P Q R S T U V W X Y Z

Nelly - Just A Dream tab

======================================================================
                     JUST A DREAM (intro) - Nelly
======================================================================

Tabbed By: Brian Wallenstein
Email: brianwallenstein@yahoo.com
Tuning: Standard (EADGBe)
Capo: 6th Fret

I couldn't find an accurate fingerpicking tab for the intro to this song so I decided to 
my own, since the intro is such a distinct part of the song.

Am: 002210
F: 133000
C: 032010
G: 320003

INTRO:

        Am                F              C             G
-------0-------0---------------------------------------------------|
----1----1--0h1------------1------------1----------0-----0--0------|
---2-2--2-2-----2-------0---0-0------0-0-0-0--0-----0-0---0---0----|
--2---2----2-----2---3-3-3---3-3----2-2---2-2--2--0--0-0---0----0--|
-0------------------3-3---3-----3--3---------3----------2--------2-|
-------------------1-------------0---------------3-----------------|

                                                 Uh, Uh, Uh ...

        Am                F              C             G
------0------0--------------------------------------------------|
---------0h1----1-------1-----1------1--1----------0-----0--0---|
---2-2-2----2-2--2---------0---0-------0-0-0--0-----0-0---0---0-|
--2-2---2------2-----3-3-3--3-------2-2---2-2--2--0--0-0---0----|
-0------------------3-3---3--3--3--3---------3----------2-------|
-------------------1-------------0---------------3--------------|

... I was thinkin' 'bout her ...
Tap to rate this tab
 
# A B C D E F G H I J K L M N O P Q R S T U V W X Y Z