Song name
# A B C D E F G H I J K L M N O P Q R S T U V W X Y Z

Nelly - Just A Dream tab

Capo on the 2nd fret.  The other tabs for this song are either incorrect or incomplete.  
is my first attempt at a tab but I think it's pretty good.

~ indicates a small pause before the next note

(the other tabs posted were helpful in coming up with this more complete version)

    C#m                     Asus2

E | ------4-------4-----------------0----------------------------------------|
B | ---5----5--4h5---------------0-----0-------------------------------------|
G | --6-6----4-----6----------2----------------------------------------------|
D | -6---6-6--4----------------22-22-22-22-----------------------------------|
A | 4-----------------------0~-----------------------------------------------|
E | -------------------------------------------------------------------------|

    Emajor                  Bmajor

E | -----0-------------------------------------------------------------------|
B | --0-----0--0~-------------4-----4--4~------------------------------------|
G | -------------1---------------4-------4-----------------------------------|
D | ---22-22-22--------------4-44-44-44--------------------------------------|
A | ------------------------2------------------------------------------------|
E | 0~-----------------------------------------------------------------------|

    C#m                     Asus2

E | -----4~-----4~---------------0~----0~------------------------------------|
B | --5-----4h5---5-----------0-----0----0-----------------------------------|
G | ---6-------6---------------2-----2---------------------------------------|
D | -6--6--6-----------------2--2--2--2--------------------------------------|
A | 4-----------------------0------------------------------------------------|
E | -------------------------------------------------------------------------|

    Emajor                  Bmajor

E | --0--0~------------------------------------------------------------------|
B | ---0---0------------------4--4~-4--4~------------------------------------|
G | ----1---1-1~---------------4-----4---4-----------------------------------|
D | ---------2--2------------4--4--4--4--------------------------------------|
A | -2----------------------2------------------------------------------------|
E | 0------------------------------------------------------------------------|
Tap to rate this tab
 
# A B C D E F G H I J K L M N O P Q R S T U V W X Y Z