Song name
# A B C D E F G H I J K L M N O P Q R S T U V W X Y Z

Nelly - Just A Dream tab

Nelly - Just A Dream

Capo 1st

e|--------1-----5-1-------1-------1|----------------------------------|
B|------3---3-------3-------3------|-------3-----3-----3---3----------|
G|----2-------2-------2-------2----|-----3---3-----3-----3------------|
D|--0-------------------0-------0--|---3-------3-----3----------------|
A|---------------------------------|-1--------------------------------|
E|---------------------------------|----------------------------------|

e|----------------------------|-------------0---------0----------------|
B|-------------------------1--|-------1-------1---1--------------------|
G|-------2-----2-----2--------|-----0---0-------0---0------------------|
D|-----3---3-----3-----3------|---2-------3----------------------------|
A|---3-------3-----3-----3----|-3--------------------------------------|
E|-1--------------------------|----------------------------------------|

Play this through the whole song
Tap to rate this tab
 
# A B C D E F G H I J K L M N O P Q R S T U V W X Y Z