Song name
# A B C D E F G H I J K L M N O P Q R S T U V W X Y Z

Nelly - Hey There Porsche tab

-------------------------------------------------------------------------------
                             HEY THERE PORSCHE - Nelly
-------------------------------------------------------------------------------
Tabbed by: Dylan Geist
E-mail:

Tuning: Standard

e|----------------------------------------------------------------------------|
B|----------------------------------------------------------------------------|
G|--------7--------------6------------------1----------------3----------------|
D|-----7----7---------------7------------------2-----------------4------------|
A|--5-----------------7------------------2----------------4-------------------|
E|------------------5-----------------0---------------2-----------------------|
Tap to rate this tab
# A B C D E F G H I J K L M N O P Q R S T U V W X Y Z