Song name
# A B C D E F G H I J K L M N O P Q R S T U V W X Y Z

Nelly - Say Now tab

Standed tuning: eBGDAE

-----------------------------------------------------------------------|
-----------------------------------------------------------------------|
----------14~-----14--------------------------------------12----14~~~~-|
---------------------15-14~~~~---10b(12)---10-12-14-15-12----12--------|
--15\1-----------------------------------------------------------------|
--13\1-----------------------------------------------------------------|

-----------------------------------------------------------------------------|
----------------17----20-17~~~~---17-15-14-15-12-12h14-----------------------|
-14-17-14-17-14--------------------------------------------------------------|
-------------------------------------------------------17-15-14-15b-15b-12\1-|
-----------------------------------------------------------------------------|
-----------------------------------------------------------------------------|

\ - slide
~ - hold or 'wobble' the note
b - bend note
h - hammer on

Thats it a great song from a great rapper!
Tap to rate this tab
 
# A B C D E F G H I J K L M N O P Q R S T U V W X Y Z