Guitaretab - guitar tabs
Song name
# A B C D E F G H I J K L M N O P Q R S T U V W X Y Z
Home / N / Nelly / Grillz tab

Nelly - Grillz tab

-------------------------------------------------------------------------------
			     GRILLZ íV Nelly ?
-------------------------------------------------------------------------------


This is a really cool, heavy riff, if you play it palm muted
And the high part is a good pattern to practice, and build up to a really high speedíK
So I decided to tab it out.

You can play this in any tuning, as long as you can play power chords on the bottom 3 
doníŽt have to play it in Drop-D.

Tuning: Drop-D
[D,A,D,G,B,e]


e|------------|------------|
B|------------|------------|
G|------------|------------|
D|--7--6-7-4--|--4--6-7-7--|
A|--7--6-7-4--|--4--6-7-7--|
D|--7--6-7-4--|--4--6-7-7--|

[ Tab from: http://www.guitaretab.com/n/nelly/69262.html ]
e|--14-17-16-17-19-17-16-17--|
B|---------------------------|
G|---------------------------|
D|---------------------------|
A|---------------------------|
D|---------------------------|


There is also another part, and itíŽs just one note-play along with really high part

e|--14-17-16-17-19-17-16-17--|
B|---------------------------|
G|---------------------------|
D|---------------------------|
A|---------------------------|
D|---6--------6--------------|<<ä║==

===============================================================================


Or, this is easier, and heavier, but itíŽs not the same pitch as the song:

e|------------|------------|
B|------------|------------|
G|------------|------------|
D|--3--2-3-0--|--0--2-3-3--|
A|--3--2-3-0--|--0--2-3-3--|
D|--3--2-3-0--|--0--2-3-3--|


e|--10-13-12-13-15-13-12-13--|<
Related for Grillz tab