Song name
# A B C D E F G H I J K L M N O P Q R S T U V W X Y Z

Nemesea - Allein Feat Stahlzeit tab

Nemesea - Allein (feat. Stahlzeit)
DROP C
                                                        
D |-------|-------|-------|----------------------------|
A |-------|-------|-------|----------------------------|
F |-------|-------|-------|----------------------------|
C |-------|-------|-------|--------------xs------------|
G |-------|-------|-------|--------------xs------------|
C |-------|-------|-------|-----------2--xs------------|

                                                          
----------------------------|----------------------------|
----------------------------|----------------------------|
--2--2--2--2--2--2--2--2----|--2--2--2--2--2--2--2--2----|
--2--2--2--2--2--2--2--2----|--2--2--2--2--2--2--2--2----|
--0--0--0--0--0--0--0--0----|--0--0--0--0--0--0--0--0----|
----------------------------|----------------------------|

                                                          
----------------------------|----------------------------|
----------------------------|----------------------------|
--2--2--2--2--2--2--2--2----|----------------------------|
--2--2--2--2--2--2--2--2----|--5--5--5--5--7--7--7--7----|
--0--0--0--0--0--0--0--0----|--3--3--3--3--5--5--5--5----|
----------------------------|----------------------------|

                                                          
----------------------------|----------------------------|
----------------------------|----------------------------|
--2--2--2--2--2--2--2--2----|--2--2--2--2--2--2--2--2----|
--2--2--2--2--2--2--2--2----|--2--2--2--2--2--2--2--2----|
--0--0--0--0--0--0--0--0----|--0--0--0--0--0--0--0--0----|
----------------------------|----------------------------|

                                                                  
----------------------------|----------------------------|-------|
----------------------------|----------------------------|-------|
--2--2--2--2--2--2--2--2----|----------------------------|-------|
--2--2--2--2--2--2--2--2----|--5--5--5--5--7--7--7--7----|-------|
--0--0--0--0--0--0--0--0----|--3--3--3--3--5--5--5--5----|-------|
----------------------------|----------------------------|-------|

                                                          
----------------------------|----------------------------|
----------------------------|----------------------------|
----------------------------|----------------------------|
----------------------------|-----------------2M----3M---|
--2M----2M-------2M----2M---|--2M----2M-------0M----1M---|
--2M----2M-------2M----2M---|--2M----2M------------------|

                                                          
----------------------------|----------------------------|
----------------------------|----------------------------|
----------------------------|----------------------------|
----------------------------|----------------------------|
--2M----2M-------2M----2M---|--2M----2M----3--2--3--2----|
--2M----2M-------2M----2M---|--2M----2M----3--2--3--2----|

                                                          
----------------------------|----------------------------|
----------------------------|----------------------------|
----------------------------|----------------------------|
----------------------------|-----------------2M----3M---|
--2M----2M-------2M----2M---|--2M----2M-------0M----1M---|
--2M----2M-------2M----2M---|--2M----2M------------------|

                                                                  
----------------------------|----------------------------|-------|
----------------------------|----------------------------|-------|
----------------------------|----------------------------|-------|
----------------------------|----------------------------|-------|
--2M----2M-------2M----2M---|--2M----2M----3--2--3--2----|-------|
--2M----2M-------2M----2M---|--2M----2M----3--2--3--2----|-------|

                                                          
----------------------------|----------------------------|
----------------------------|----------------------------|
----------------------------|----------------------------|
----------------------------|-----------------2M----3M---|
--2M----2M-------2M----2M---|--2M----2M-------0M----1M---|
--2M----2M-------2M----2M---|--2M----2M------------------|

                                                          
----------------------------|----------------------------|
----------------------------|----------------------------|
----------------------------|----------------------------|
----------------------------|----------------------------|
--2M----2M-------2M----2M---|--2M----2M----3--2--3--2----|
--2M----2M-------2M----2M---|--2M----2M----3--2--3--2----|

                                                          
----------------------------|----------------------------|
----------------------------|----------------------------|
----------------------------|----------------------------|
----------------------------|-----------------2M----3M---|
--2M----2M-------2M----2M---|--2M----2M-------0M----1M---|
--2M----2M-------2M----2M---|--2M----2M------------------|

                                                          
----------------------------|----------------------------|
----------------------------|----------------------------|
----------------------------|----------------------------|
----------------------------|----------------------------|
--2M----2M-------2M----2M---|--2M----2M-5--5--5--5--5----|
--2M----2M-------2M----2M---|--2M----2M-5--5--5--5--5----|

                                                          
----------------------------|----------------------------|
----------------------------|----------------------------|
--2--2--2--2--2--2--2--2----|--5--5--5--5--5--5--5--5----|
--2--2--2--2--2--2--2--2----|--5--5--5--5--5--5--5--5----|
--0--0--0--0--0--0--0--0----|--3--3--3--3--3--3--3--3----|
----------------------------|----------------------------|

                                                          
----------------------------|----------------------------|
----------------------------|----------------------------|
----------------------------|----------------------------|
--5--5--5--5--5--5--5--5----|--3--3--3--3--3--3--3--3----|
--5--5--5--5--5--5--5--5----|--3--3--3--3--3--3--3--3----|
--5--5--5--5--5--5--5--5----|--3--3--3--3--3--3--3--3----|

                                                          
----------------------------|----------------------------|
----------------------------|----------------------------|
--2--2--2--2--2--2--2--2----|--5--5--5--5--5--5--5--5----|
--2--2--2--2--2--2--2--2----|--5--5--5--5--5--5--5--5----|
--0--0--0--0--0--0--0--0----|--3--3--3--3--3--3--3--3----|
----------------------------|----------------------------|

                                                          
----------------------------|----------------------------|
----------------------------|----------------------------|
----------------------------|----------------------------|
--3--3--3--3--3--3--3--3----|--0--0--0--0--0--0--0--0----|
--3--3--3--3--3--3--3--3----|--0--0--0--0--0--0--0--0----|
--3--3--3--3--3--3--3--3----|--0--0--0--0--0--0--0--0----|

                                                          
----------------------------|----------------------------|
----------------------------|----------------------------|
--2--2--2--2--2--2--2--2----|--5--5--5--5--5--5--5--5----|
--2--2--2--2--2--2--2--2----|--5--5--5--5--5--5--5--5----|
--0--0--0--0--0--0--0--0----|--3--3--3--3--3--3--3--3----|
----------------------------|----------------------------|

                                                                  
----------------------------|----------------------------|-------|
----------------------------|----------------------------|-------|
----------------------------|----------------------------|-------|
--5--5--5--5--5--5--5--5----|--3--3--3--3--3--3--3--3----|-------|
--5--5--5--5--5--5--5--5----|--3--3--3--3--3--3--3--3----|-------|
--5--5--5--5--5--5--5--5----|--3--3--3--3--3--3--3--3----|-------|

                                                     
----------------------------------------------------|
----------------------------------------------------|
----------------------------------------------------|
--------------------------xs------------------------|
--------------------------xs------------------------|
--------------------2M-2M-xs------------------------|

                                                          
----------------------------|----------------------------|
----------------------------|----------------------------|
----------------------------|----------------------------|
----------------------------|-----------------2M----3M---|
--2M----2M-------2M----2M---|--2M----2M-------0M----1M---|
--2M----2M-------2M----2M---|--2M----2M------------------|

                                                          
----------------------------|----------------------------|
----------------------------|----------------------------|
----------------------------|----------------------------|
----------------------------|----------------------------|
--2M----2M-------2M----2M---|--2M----2M----3--2--3--2----|
--2M----2M-------2M----2M---|--2M----2M----3--2--3--2----|

                                                          
----------------------------|----------------------------|
----------------------------|----------------------------|
----------------------------|----------------------------|
----------------------------|-----------------2M----3M---|
--2M----2M-------2M----2M---|--2M----2M-------0M----1M---|
--2M----2M-------2M----2M---|--2M----2M------------------|

                                                          
----------------------------|----------------------------|
----------------------------|----------------------------|
----------------------------|----------------------------|
----------------------------|----------------------------|
--2M----2M-------2M----2M---|--2M----2M-5--5--5--5--5----|
--2M----2M-------2M----2M---|--2M----2M-5--5--5--5--5----|

                                                          
----------------------------|----------------------------|
----------------------------|----------------------------|
--2--2--2--2--2--2--2--2----|--5--5--5--5--5--5--5--5----|
--2--2--2--2--2--2--2--2----|--5--5--5--5--5--5--5--5----|
--0--0--0--0--0--0--0--0----|--3--3--3--3--3--3--3--3----|
----------------------------|----------------------------|

                                                          
----------------------------|----------------------------|
----------------------------|----------------------------|
----------------------------|----------------------------|
--5--5--5--5--5--5--5--5----|--3--3--3--3--3--3--3--3----|
--5--5--5--5--5--5--5--5----|--3--3--3--3--3--3--3--3----|
--5--5--5--5--5--5--5--5----|--3--3--3--3--3--3--3--3----|

                                                          
----------------------------|----------------------------|
----------------------------|----------------------------|
--2--2--2--2--2--2--2--2----|--5--5--5--5--5--5--5--5----|
--2--2--2--2--2--2--2--2----|--5--5--5--5--5--5--5--5----|
--0--0--0--0--0--0--0--0----|--3--3--3--3--3--3--3--3----|
----------------------------|----------------------------|

                                                          
----------------------------|----------------------------|
----------------------------|----------------------------|
----------------------------|----------------------------|
--3--3--3--3--3--3--3--3----|--0--0--0--0--0--0--0--0----|
--3--3--3--3--3--3--3--3----|--0--0--0--0--0--0--0--0----|
--3--3--3--3--3--3--3--3----|--0--0--0--0--0--0--0--0----|

                                                          
----------------------------|----------------------------|
----------------------------|----------------------------|
--2--2--2--2--2--2--2--2----|--5--5--5--5--5--5--5--5----|
--2--2--2--2--2--2--2--2----|--5--5--5--5--5--5--5--5----|
--0--0--0--0--0--0--0--0----|--3--3--3--3--3--3--3--3----|
----------------------------|----------------------------|

                                                          
----------------------------|----------------------------|
----------------------------|----------------------------|
----------------------------|----------------------------|
--5--5--5--5--5--5--5--5----|--2--2--2--2--2--2--2--2----|
--5--5--5--5--5--5--5--5----|--2--2--2--2--2--2--2--2----|
--5--5--5--5--5--5--5--5----|--2--2--2--2--2--2--2--2----|

                                                                             
----------------------------|-------|-------|-------|-------|-------|-------|
----------------------------|-------|-------|-------|-------|-------|-------|
----------------------------|-------|-------|-------|-------|--2L---|--2----|
--2--2--2--2--2--2--2--2----|--3L---|--3----|--0L---|--0----|--2L---|--2----|
--2--2--2--2--2--2--2--2----|--3L---|--3----|--0L---|--0----|--0L---|--0----|
--2--2--2--2--2--2--2--2----|--3L---|--3----|--0L---|--0----|-------|-------|

                                                                                
-------|-------|-------|-------|-------|-------|-------|-------|-------|-------|
-------|-------|-------|-------|-------|-------|-------|-------|-------|-------|
-------|-------|-------|-------|-------|-------|--2L---|--2----|--2L---|--2----|
--5L---|--5----|--3L---|--3----|--0L---|--0----|--2L---|--2----|--2L---|--2----|
--5L---|--5----|--3L---|--3----|--0L---|--0----|--0L---|--0----|--0L---|--0----|
--5L---|--5----|--3L---|--3----|--0L---|--0----|-------|-------|-------|-------|

                          <
-------|-------|-------|-------|----------------------------|
-------|-------|-------|-------|----------------------------|
-------|-------|-------|--4----|--4--4--4--4--4--4--4--4----|
-------|-------|-------|--4----|--4--4--4--4--4--4--4--4----|
-------|-------|-------|--2----|--2--2--2--2--2--2--2--2----|
-------|-------|-------|-------|----------------------------|


----------------------------|----------------------------|
----------------------------|----------------------------|
--7--7--7--7--7--7--7--7----|----------------------------|
--7--7--7--7--7--7--7--7----|--7--7--7--7--7--7--7--7----|
--5--5--5--5--5--5--5--5----|--7--7--7--7--7--7--7--7----|
----------------------------|--7--7--7--7--7--7--7--7----|


----------------------------|----------------------------|
----------------------------|----------------------------|
----------------------------|--4--4--4--4--4--4--4--4----|
--5--5--5--5--5--5--5--5----|--4--4--4--4--4--4--4--4----|
--5--5--5--5--5--5--5--5----|--2--2--2--2--2--2--2--2----|
--5--5--5--5--5--5--5--5----|----------------------------|


----------------------------|----------------------------|
----------------------------|----------------------------|
--7--7--7--7--7--7--7--7----|----------------------------|
--7--7--7--7--7--7--7--7----|--5--5--5--5--5--5--5--5----|
--5--5--5--5--5--5--5--5----|--5--5--5--5--5--5--5--5----|
----------------------------|--5--5--5--5--5--5--5--5----|


----------------------------|----------------------------|
----------------------------|----------------------------|
----------------------------|--4--4--4--4--4--4--4--4----|
--2--2--2--2--2--2--2--2----|--4--4--4--4--4--4--4--4----|
--2--2--2--2--2--2--2--2----|--2--2--2--2--2--2--2--2----|
--2--2--2--2--2--2--2--2----|----------------------------|


----------------------------|----------------------------|
----------------------------|----------------------------|
--7--7--7--7--7--7--7--7----|----------------------------|
--7--7--7--7--7--7--7--7----|--7--7--7--7--7--7--7--7----|
--5--5--5--5--5--5--5--5----|--7--7--7--7--7--7--7--7----|
----------------------------|--7--7--7--7--7--7--7--7----|


----------------------------|----------------------------|
----------------------------|----------------------------|
----------------------------|----------------------------|
--5--5--5--5--5--5--5--5----|--5--5--5--5--5--5--5--5----|
--5--5--5--5--5--5--5--5----|--5--5--5--5--5--5--5--5----|
--5--5--5--5--5--5--5--5----|--5--5--5--5--5--5--5--5----|


----------------------------|-------||
----------------------------|-------||
----------------------------|-------||
--5--5--5--5--5--5--5--5----|-------||
--5--5--5--5--5--5--5--5----|-------||
--5--5--5--5--5--5--5--5----|-------||
Tap to rate this tab
# A B C D E F G H I J K L M N O P Q R S T U V W X Y Z