Song name
# A B C D E F G H I J K L M N O P Q R S T U V W X Y Z

Nemesis - Its Rock tab

e|--------2---0-------0-------2-------0------0----|
B|----0-----------1-------1-------0-------1-------|
G|------------------------------------------------|
D|------------------------------------------------|
A|------------------------------------------------|
E|------------------------------------------------|

Guitar 2

e|------------------------------------------------|
B|------------------------------------------------|
G|---0-0-0-0-0---2-2-2-2-2---0-0-0-0-0---2-2-2-2-2|
D|---2-2-2-2-2---2-2-2-2-2---2-2-2-2-2---2-2-2-2-2|
A|---2-2-2-2-2---0-0-0-0-0---2-2-2-2-2---0-0-0-0-0|
E|------------------------------------------------|
Tap to rate this tab
 
# A B C D E F G H I J K L M N O P Q R S T U V W X Y Z