Song name
# A B C D E F G H I J K L M N O P Q R S T U V W X Y Z

Nemesis - You Can Run But You Cant Hide tab

This Is to be played very fast and loud. Enjoy.


Guitar 1 Loud w/ distortion
E-----------------------------------------------------------------|
B-----------------------------------------------------------------|
G-----------------------------------------------------------------|
D-----------------------------------------------------------------|
A-0-0-3-0-6-0-7-0-6-0-3-0-6-0-3-0-0-3-0-6-0-7-0-6-0-3-0-6-0-3-0---|
E-----------------------------------------------------------------|


Guitar 2 w/ Distortion to be barred on 5th fret.
E--5------5------5----5----5----5---5---5------------------------|
B--5------5------5----5----5----5---5---5------------------------|
G--5------5------5----5----5----5---5---5------------------------|
D--5-7----5-7----5-7--5-7--5--7-5-7-5-7-5-7----------------------|
A--5-7----5-7----5-7--5-7--5--7-5-7-5-7-5-7----------------------|
E--5------5------5----5----5----5---5---5------------------------|
Tap to rate this tab
 
# A B C D E F G H I J K L M N O P Q R S T U V W X Y Z