Nenhum De Nos - Voce Vai Lembrar De Mim tab

Nenhum de Nós
Você Vai Lembrar de Mim (Acústica)
http://www.nenhumdenos.com.br
Awesome brazilian band

h - hammer on
/ - slide

E|--------------------------| 
B|-----5---------6h5--------|
G|----6----6h7--------7-----|  
D|---7---7-----7------------|
A|--------------------------|
E|--------------------------|    (On and on during intro)

A            Dm9/A
Quando eu te vejo
  A        Dm9/A
Espero teu beijo
    A        Dm9/A
Não sinto vergonha
 A      Dm7/A
Apenas desejo
      A      Dm9/A
Minha boca encosta
       A       Dm9/A
Em tua boca que treme
     A         Dm9/A
Meus olhos eu fecho
       A           Dm9/A
Mas os teus estão abertos

Bm                  E
Tudo bem se não deu certo
    Bm
Eu achei que nós
             E
Chegamos tão perto
     F#m           A           Bm     D
Mas agora - com certeza - eu enxergo
       E       
Que no fim eu amei por nós dois
A           D7+    A         D7+
Esse foi um beijo de despedida
A            D7+           A    D7+
Que se dá uma vez só na vida
      A      D7+ A      D7+
Que explica tudo sem brigas
      A            D7+          A   D7+
E clareia o mais escuro dos dias
Bm                  E
Tudo bem se não deu certo
    Bm
Eu achei que nós
             E
Chegamos tão perto
     F#m           A           Bm     D
Mas agora - com certeza - eu enxergo
       E       
Que no fim eu amei por nós dois

         A         E                 Bm
Mas você lembra! Você vai lembrar de mim
             D           Dm
Que o nosso amor valeu à pena
A           E             Bm
Lembra! É o nosso final feliz
     D           Dm          E
Você vai lembrar Vai lembrar sim.
                A		A4	A	A4
Você lembrar de mim! 

A           D7+    A         D7+
Esse foi um beijo de despedida
A             D7+           A    D7+
Que se dá uma vez só na vida
      A      D7+  A      D7+
Que explica tudo sem brigas
      A            D7+          A  Dm9/A
E clareia o mais escuro dos dias
Bm                  E
Tudo bem se não deu certo
    Bm
Eu achei que nós
             E
Chegamos tão perto
     F#m           A           Bm     D
Mas agora - com certeza - eu enxergo
       E       
Que no fim eu amei por nós dois

         A         E                 Bm
Mas você lembra! Você vai lembrar de mim
             D           Dm
Que o nosso amor valeu à pena
A           E             Bm
Lembra! É o nosso final feliz
     D           Dm          E
Você vai lembrar Vai lembrar sim.
                Bm   E   Bm   E   Bm  E (4x)
Você lembrar de mim! (SOLO)


E|-------------------------------------------------------------| 
B|-3p2h3-3-2---------------------------------------------------|
G|-----------4-2--------------------2--------------------------|  2 X 
D|---------------4-2h4-2--------2-4----------------------------|
A|------------------------4-2h4--------------------------------|
E|-------------------------------------------------------------|

E|-----------------------------------------------------5--5--5--| 
B|-3/2-3-5-3-2---------------------------------2-3--3/5--5--5---|
G|--------------4-2h4-2-------1---1-1-2-4---4-4-----------------|    
D|----------------------4-2h4-----------------------------------|
A|--------------------------------------------------------------|
E|--------------------------------------------------------------|

(A E Bm D Dm) 

CHORUS

INTRO

(END)
Tap to rate this tab
 
# A B C D E F G H I J K L M N O P Q R S T U V W X Y Z