Song name
# A B C D E F G H I J K L M N O P Q R S T U V W X Y Z

Neon Highwire - Dont Wait tab

http://www.neonhighwire.com

Verse Riff

E||-12----------11-11-12----------|------------------------------------||
B||----------------------12-12-11-|--12H15P12H15H12H15H12H15H12-12-13--||
G||----13-13-14-------------------|------------------------------------||
D||-------------------------------|------------------------------------||
A||-------------------------------|------------------------------------||
E||-------------------------------|------------------------------------||

Backing Chorus Riff

E||---------------------------------||
B||---------------------------------||
G||----4---4---4---4---4---4--4---4-||
D||--2---2---2---2------------------||
A||------------------3---3---2--2---||
E||---------------------------------||

Main Chorus Riff

E||-----------------------------------||
B||-----------------------------------||
G||----------2-------5-4-2---2--------||
D||--2-4-5-4---5-4-2-------5---5-4-2--||
A||-----------------------------------||
E||-----------------------------------||

E||-----------------------------------||
B||----------5-------8-7-5---5--------||
G||--4-5-7-5---7-5-4-------7---7-5-4--||
D||-----------------------------------||
A||-----------------------------------||
E||-----------------------------------||

E||----------------------------------||
B||---------3-------6-5-3---3--------||
G||-2-4-5-4---5-4-2-------5---5-3-2--||
D||----------------------------------||
A||----------------------------------||
E||----------------------------------||

Breakdown

E||---------------||
B||---------------||
G||----4-------2--||
D||--2-------3----||
A||---------------||
E||---------------||

E||--------------3-5-2-3-------3----||
B||----------3-5---------3-3-4---5--||
G||------4-5------------------------||
D||--4-5----------------------------||
A||---------------------------------||
E||---------------------------------||
Tap to rate this tab
 
# A B C D E F G H I J K L M N O P Q R S T U V W X Y Z