Song name
# A B C D E F G H I J K L M N O P Q R S T U V W X Y Z

Neon Horse - I Dont Need Anything tab

-------------------------------------------------------------------------------
			     I Don't Need Anything - Neon Horse
-------------------------------------------------------------------------------
Tabbed by: Joel Leach
Email: freakyaardvarks@yahoo.com

Tuning: Standard

Intro:

e|---------------------------------------------------------------------------|
B|---------------------------------------------------------------------------|
G|---------------------------------------------------------------------------|	X2
D|9----9----9-8-7-5----5----5-4-3-2----7----5--------------------------------|
A|7----7----7-6-5-3----3----3-2-1-0----5----3----5-4-2-----------------------|
E|-----------------------------------------------3-2-0-----------------------|

Verse 1:

e|---------------------------------------------------------------------------|
B|---------------------------------------------------------------------------|
G|---------------------------------------------------------------------------|	X4
D|-----2-------------5----5-5------------------------------------------------|	
A|-----------------5---------------------------------------------------------|
E|0---------0-2-3-------3----------------------------------------------------|

Chorus:

e|---------------------------------------------------------------------------|
B|---------------------------------------------------------------------------|
G|---------------------------------------------------------------------------|	X2
D|9----9----9-8-7-5----5----5-4-3-2----7----5--------------------------------|
A|7----7----7-6-5-3----3----3-2-1-0----5----3----5-4-2-----------------------|
E|-----------------------------------------------3-2-0-----------------------|

Verse 2:

e|---------------------------------------------------------------------------|
B|---------------------------------------------------------------------------|
G|---------------------------------------------------------------------------|	X4
D|-----2-------------5----5-5------------------------------------------------|	
A|-----------------5---------------------------------------------------------|
E|0---------0-2-3-------3----------------------------------------------------|

Chorus:

e|---------------------------------------------------------------------------|
B|---------------------------------------------------------------------------|
G|---------------------------------------------------------------------------|	X4
D|9----9----9-8-7-5----5----5-4-3-2----7----5--------------------------------|
A|7----7----7-6-5-3----3----3-2-1-0----5----3----5-4-2-----------------------|
E|-----------------------------------------------3-2-0-----------------------|

Bridge:

e|---------------------------------------------------------------------------|
B|---------------------------------------------------------------------------|
G|---------------------------------------------------------------------------|	X8
D|---------------------------------------------------------------------------|
A|2--4--2--4-5---------------------------------------------------------------|
E|0--2--0--2-3---------------------------------------------------------------|

Bridge Lead:

e|---------------------------------------------------------------------------|
B|9-------------------9------------------------------------------------------|
G|-----9----7--7h9------9----7--7h9------------------------------------------|	X3
D|---------------------------------------------------------------------------|
A|---------------------------------------------------------------------------|
E|---------------------------------------------------------------------------|


Chorus:

e|---------------------------------------------------------------------------|
B|---------------------------------------------------------------------------|
G|---------------------------------------------------------------------------|	X6
D|9----9----9-8-7-5----5----5-4-3-2----7----5--------------------------------|
A|7----7----7-6-5-3----3----3-2-1-0----5----3----5-4-2-----------------------|
E|-----------------------------------------------3-2-0-----------------------|

Chorus Lead:

e|---------------------------------------------------------------------------|
B|10b12----------------------------8-7---------------------------------------|
G|-------------------------------------9-------------------------------------|	X6
D|---------------------------------------------------------------------------|
A|---------------------------------------------------------------------------|
E|---------------------------------------------------------------------------|

Outro:

e|---------------------------------------------------------------------------|
B|15b17----------------------------------------------------------------------|
G|---------------------------------------------------------------------------|
D|---------------------------------------------------------------------------|
A|---------------------------------------------------------------------------|
E|---------------------------------------------------------------------------|


************************************

| /   slide up
| \   slide down
| h   hammer-on
| p   pull-off
| ~   vibrato
| +   harmonic
| x   Mute note
| b   Bend
| pb  Pre-bend
| br  Bend release
| pbr Pre-bend release
| brb Bend release bend

************************************
Tap to rate this tab
 
# A B C D E F G H I J K L M N O P Q R S T U V W X Y Z