Song name
# A B C D E F G H I J K L M N O P Q R S T U V W X Y Z

Neon Indian - Terminally Chill tab

Neon Indian's Terminally Chill from the 2009 album Psychic Chasms

All bends are a half step and then return (15b=15b16r15)

E-------------------|--------16b--|-----------------|
B----------15b--13~~|-13h15-------|--15b--15b--13~~~|
G-------------------|-------------|-----------------|
D-------------------|-------------|-----------------|
A-------------------|-------------|-----------------|
E-------------------|-------------|-----------------|

E-------------------|-------------|-------------------------|
B-------------------|---------15b-|-------------------------|
G---15p13-----------|-------------|--13-13~~~~----------/13-|
D---------15----13--|--13h15------|-------------------------|
A-------------------|-------------|-------------------------|
E-------------------|-------------|-------------------------|

E-------------------|--------16b--|-----------------|
B----------15b--13~~|-13h15-------|--15b--15b--13~~~|
G-------------------|-------------|-----------------|
D-------------------|-------------|-----------------|
A-------------------|-------------|-----------------|
E-------------------|-------------|-----------------|

E-------------------|-------------|-----------------|
B-------------------|---------15b-|-----------------|
G---15p13-----------|-------------|--13-13~~~~------|
D---------15----13--|--13h15------|-----------------|
A-------------------|-------------|-----------------|
E-------------------|-------------|-----------------|

tabbed by Nick Acosta

http://www.myspace.com/neonindian
Tap to rate this tab
 
# A B C D E F G H I J K L M N O P Q R S T U V W X Y Z