Guitaretab - guitar tabs
Song name
# A B C D E F G H I J K L M N O P Q R S T U V W X Y Z

Neon Trees - Everybody Talks tab

Standard Tuning

Verse
e---------------------------4-4--4-4-4--4-4-4--4-4-4-|
b-8-8--8-8-8--8-8-8--8-8-8--4-4--4-4-4--4-4-4--4-4-4-|
g-8-8--8-8-8--8-8-8--8-8-8--5-5--5-5-5--5-5-5--5-5-5-|
d-8-8--8-8-8--8-8-8--8-8-8--6-6--6-6-6--6-6-6--6-6-6-|
a-6-6--6-6-6--6-6-6--6-6-6--6-6--6-6-6--6-6-6--6-6-6-|
e---------------------------4-4--4-4-4--4-4-4--4-4-4-|

Pre-Chorus
e-6-6-6-6-6-6-6-6-6-6-6-6-6-6-6-6-|
b-6-6-6-6-6-6-6-6-6-6-6-6-6-6-6-6-|
g-7-7-7-7-7-7-7-7-7-7-7-7-7-7-7-7-|
d-8-8-8-8-8-8-8-8-8-8-8-8-8-8-8-8-|
a-8-8-8-8-8-8-8-8-8-8-8-8-8-8-8-8-|
e-6-6-6-6-6-6-6-6-6-6-6-6-6-6-6-6-|

Chorus
e-----------------------------------------------------|
b-8888888888888888------------------------------------|
g-8888888888888888-5555555555555555-77777777-55555555-|
d-8888888888888888-6666666666666666-88888888-66666666-|
a-6666666666666666-6666666666666666-88888888-66666666-|
e------------------4444444444444444-66666666-44444444-|

e----------------------------------------------------------------------|
b-8888888888888888------------------------------------8888888888888888-|
g-8888888888888888-4444444444444444-55555555-77777777-8888888888888888-|
d-8888888888888888-5555555555555555-66666666-88888888-8888888888888888-|
a-6666666666666666-5555555555555555-66666666-88888888-6666666666666666-|
e------------------3333333333333333-44444444-66666666------------------|
[ Tab from: http://www.guitaretab.com/n/neon-trees/305117.html ]
Verse 2
Rhythm is same
Lead
e----------------------------|
b----11------------11--------|
g-10----10-12~--10----8-10~--|
d----------------------------|
a----------------------------|
e----------------------------|

Pre-Chorus
Chorus

Bridge
e-4-4--4-4-4--4-4-4--4-4-4----------------------------|
b-4-4--4-4-4--4-4-4--4-4-4--8-8--8-8-8--8-8-8--8-8-8--|
g-5-5--5-5-5--5-5-5--5-5-5--8-8--8-8-8--8-8-8--8-8-8--|
d-6-6--6-6-6--6-6-6--6-6-6--8-8--8-8-8--8-8-8--8-8-8--|
a-6-6--6-6-6--6-6-6--6-6-6--6-6--6-6-6--6-6-6--6-6-6--|
e-4-4--4-4-4--4-4-4--4-4-4----------------------------|

e-4-4--4-4-4--4-4-4--4-4-4--6-6--6-6-6--6-6-6--6-6-6-|
b-4-4--4-4-4--4-4-4--4-4-4--6-6--6-6-6--6-6-6--6-6-6-|
g-5-5--5-5-5--5-5-5--5-5-5--7-7--7-7-7--7-7-7--7-7-7-|
d-6-6--6-6-6--6-6-6--6-6-6--8-8--8-8-8--8-8-8--8-8-8-|
a-6-6--6-6-6--6-6-6--6-6-6--8-8--8-8-8--8-8-8--8-8-8-|
e-4-4--4-4-4--4-4-4--4-4-4--6-6--6-6-6--6-6-6--6-6-6-|


Solo
Rhythm strums this chord repeatedly
e---
b-8-
g-8-
d-8-
a-6-
e---

Lead
e-[------- Repeat ------------]-----------------------------|
b-[--------- 3x --------------]-----------------------------|
g-[---------------------------]-----------------------------|
d-[---------------------------]---------------------8-8-8-8-|
a-[-8-10-8-10-8-10-8-10-11-10-]-8-10-8-10-8-10-8-10---------|
e-[---------------------------]-----------------------------|
Related for Everybody Talks tab
Everybody Talks chords by Neon Trees