Song name
# A B C D E F G H I J K L M N O P Q R S T U V W X Y Z

Neon Trees - Weekend tab

-------------------------------------------------------------------------------
                             Weekend - Neon Trees
-------------------------------------------------------------------------------
Tabbed by: Pochama999
E-mail: kidicarus505@aol.com

Tuning: Standard

e|-------------------------------------------------------------------|
B|-------------------------------------------------------------------|
G|---7-7--9-7-9-7-6-------------------7-7--9-7-9-7-6-----------------|
D|-------------------9--9--9--9--9--------------------7--7--7--7--7--|
A|-------------------------------------------------------------------|
E|-------------------------------------------------------------------|


e|-------------------------------------------------------------------|
B|-------------------------------------------------------------------|
G|---7-7--9-7-9-7-6-------------------7-7--9-7-9-7-6-----------------|
D|-------------------9--9--9--9--9--------------------7--7--7-9---7--|
A|-------------------------------------------------------------------|
E|-------------------------------------------------------------------|

That's the best that I could make out for the riff in the verses.

This is my first tab, so if you have any corrections or suggestions, make sure to let me know!
Tap to rate this tab
 
# A B C D E F G H I J K L M N O P Q R S T U V W X Y Z