Guitaretab - guitar tabs
Song name
# A B C D E F G H I J K L M N O P Q R S T U V W X Y Z

Nephew - 007 Is Also Gonna Die tab

----------------------------------------------------------------------------
		        007 Is Also Gonna Die - Nephew
----------------------------------------------------------------------------
Tabbed by: Bee-Ay
Email: Leviathan_ben@hotmail.com

Tuning: Standard.



HE IS BOUND TO DIIIIIIIIE! Haha, endelig skal den nar dø. :D

Det' HERRE fedt!
Sangen er mest skruget sammen med Synthesizere.
Guitaren eksplodere først i bridgen.

Intro/Vers: Med rumklang og delay.
e|-------------------------------------------|
B|-------------------------------------------|
G|*-----------------------------------------*|
D|*--------------------------------------2~-*|
A|-------------------------------------------|
E|--3-3-3--3p0--0-0--------3-3-3--3p0--0-----|






Før-kvæd: "Da-da-dam-dam-dada-dam".
Guitaren sniger sig op lige før omkvædet med den her tone,
som bliver spillet hårdere og hårdere:
e|---------------------------------------------------------------|
B|--5-5-5-5-5-5-5-5-5-5-5-5-5-5-5-5-5-5-5-5-5-5-5-5-5-5-5-5-5-5--|
G|*-------------------------------------------------------------*|
D|*-------------------------------------------------------------*|
A|---------------------------------------------------------------|
E|---------------------------------------------------------------|




Omkvæd: Med Distortion. Stringen er dæmpet (Palm Muted)
e|------------------------------------------------------------------|
B|------------------------------------------------------------------|
G|*--4-4-4-4-4-4-4-4-4-4-4-4-4-4-4-4-4-4-4-4-4-4-5-5-5-5-5-5-5-5-5-*|
D|*----------------------------------------------------------------*|
A|------------------------------------------------------------------|
E|------------------------------------------------------------------|
pm:. . . . . . . . . . . . . . . . . . . . . . . . . . . . . . .



[ Tab from: http://www.guitaretab.com/n/nephew/184166.html ]
Bridge: Med MEGET distortion!
e|--------------------------------------------------------------------
B|--------------------------------------------------------------------
G|*-------------------------------------------------------------------
D|*-7/9-9-9-9-9--7/9-9-9-9-9-9-9-9-9--9/7-7-7-7-7-7-7-4-4-4-4-4-4-4-4-
A|--5/7-7-7-7-7--5/7-7-7-7-7-7-7-7-7--7/5-5-5-5-5-5-5-2-2-2-2-2-2-2-2-
E|--------------------------------------------------------------------

e|----------------------------------------------------------------|
B|----------------------------------------------------------------|
G|-------------7-7-7-7-7-7-7-7-7---------------------------------*|
D|-7/9-9-9-9-9-5-5-5-5-5-5-5-5-5-4-4-4-4-4-4-4-4-4-4-4-4-4-4-4-4-*|
A|-5/7-7-7-7-7-5-5-5-5-5-5-5-5-5-2-2-2-2-2-2-2-2-2-2-2-2-2-2-2-2--|
E|----------------------------------------------------------------|




HEY HEEEEY!

Wåh-wååååh: (magentil bridge..)
e|--------------------------------------------------------------------
B|--------------------------------------------------------------------
G|*-------------------------------------------------------------------
D|*-7/9-9-9-9-9--7/9-9-9-9-9-9-9-9-9--9/7-7-7-7-7-7-7-4-4-4-4-4-4-4-4-
A|--5/7-7-7-7-7--5/7-7-7-7-7-7-7-7-7--7/5-5-5-5-5-5-5-2-2-2-2-2-2-2-2-
E|--------------------------------------------------------------------

e|----------------------------------------------------------------|
B|----------------------------------------------------------------|
G|-------------7-7-7-7-7-7-7-7-7---------------------------------*|
D|-7/9-9-9-9-9-5-5-5-5-5-5-5-5-5-4-4-4-4-4-4-4-4-4-4-4-4-4-4-4-4-*|
A|-5/7-7-7-7-7-5-5-5-5-5-5-5-5-5-2-2-2-2-2-2-2-2-2-2-2-2-2-2-2-2--|
E|----------------------------------------------------------------|


Outro:
e|-----------------------------|
B|-----------------------------|
G|-----------------------------|
D|-7/9-9-9---7/9-9-9---7/9-9//-|
A|-5/7-7-7---5/7-7-7---5/7-7//-|
E|-5/7-7-7---5/7-7-7---5/7-7//-|


Det er bare det. Ganske ligetil, og godt nummer. ROCK ON!!
Related for 007 Is Also Gonna Die tab
×
007 Is Also Gonna Die