Song name
# A B C D E F G H I J K L M N O P Q R S T U V W X Y Z

Nephew - Police Bell Church Sirens tab

Dette er det solo der spilles mellem versene.
dette er mine forste tabs saa de er nok ikke så gode.

e|-----------------------------------------------------------|
b|-----------------------------------------------------------|
g|-----------------------------------------------------------|
d|7-7-9-9-10-10---------------9-9-10-10-12-12-9-9-10-10-12-12|
a|--------------9-9-10-10-9-9--------------------------------|
e|-----------------------------------------------------------|

e|---------------------------------------------------|
b|---------------------------------------------------|
g|---------------------------------------------------|
d|7-7-9-9-10-10---------------5-5-7-7-9-9-5-5-7-7-9-9|
a|--------------9-9-10-10-9-9------------------------|
e|---------------------------------------------------|
Tap to rate this tab
 
# A B C D E F G H I J K L M N O P Q R S T U V W X Y Z