Song name
# A B C D E F G H I J K L M N O P Q R S T U V W X Y Z

Nephew - Hjertestarter tab

-----------------------------------------------------------------------------
                        Hjertestarter - Nephew
-----------------------------------------------------------------------------

    ______________________________
   / Nephew                      / Tabbed by: Bee-Ay
  / Hjertestarter               /
 / Hjertestarter 2012          / Tuning: Drop D
/_____________________________/


Stem den dybe E-streng en tone ned, så den stemmer i D. Det kaldes drop D.

I forhold til de forskellige stykker og guitarlyde rundt omkring i sangen,
så har jeg tilknyttet nogle kommentarer og guides i bunden af tabben.

Intro/opbygningsforløb:
e|-----------------------------------------|
B|-----------------------------------------|
G|-----------------------------------------|
D|-----------------------------------------|
A|-5~~-------8/10-10~~---//13-13-12-12-8-8-|
D|-----------------------------------------|

e|-----------------------------------------|
B|-----------------------------------------|
G|-----------------------------------------|
D|-----------------------------------------|
A|-5~~-------8/10-10~~~~-------------------|
D|-----------------------------------------|

e|-----------------------------------------|
B|-----------------------------------------|
G|-----------------------------------------|
D|-----------------------------------------|
A|-5~~-------8/10-10~~---//13-13-12-12-8---|
D|-----------------------------------------|

e|-----------------------------------------|
B|-----------------------------------------|
G|-----------------------------------------|
D|-----------------------------------------|
A|-5~~-------8/10-10~~~~-------------------|
D|-----------------------------------------|



Vers "Ka' ikke se noget, Ka' ikke høre noget":
e|----------------------------------------------------------------------|
B|----------------------------------------------------------------------|
G|*--------------------------------------------------------------------*|
D|*---3---3---3---3----5---5---5---5----4---4---4---4----3---3---3---3-*|
A|--1---1---1---1----5---5---5---5----5---5---5---5----5---5---5---5----|
D|----------------------------------------------------------------------|

Bro "Blæs mig igennem som et mælkebøttefnug":
e|------------------------------------------------------------------|
B|------------------------------------------------------------------|
G|-----------------------------------5---5---5---5----5---5---5---5-|
D|-----8---7-----5-----------------5---5---5---5----5---5---5---5---|
A|-------------8---8---8---5---8------------------------------------|
D|-5-5---5---5-------5---5---5---5----------------------------------|

e|------------------------------------------|
B|--------------------------------6~~---5~~-|
G|--------------------------------5~~---5~~-|
D|-----8---7-----5----------------5~~---5~~-|
A|-------------8---8---8---5---8------------|
D|-5-5---5---5-------5---5---5--------------|


Omkvæd:

Guitar 1:
e|----------------------------------------------------------|
B|----------------------------------------------------------|
G|----------------------------------------------------------|
D|-0----3-------5----------------0----3-----5---------------|
A|-0----3-------5----------------0----3-----5---------------|
D|-0----3-------5----------------0----3-----5---------------|

Guitar 2:
e|----------------------------------------------------------|
B|----------------------------------------------------------|
G|----------------------------------------------------------|
D|-0----3-------5----------------0----3-----5---------------|
A|-0----3-------5----------------0----3-----5---------------|
D|-0----3-------5----5--3--5--3--0----3-----5----8--7--8--7-|


Breakdown (Guitar 1):
e|---------------------------------------------------------------------------------|
B|---------------------------------------------------------------------------------|
G|---------------------------------------------------------------------------------|
D|---------------------------------------------------------------------------------|
A|-5-5-5-5-5-5-5-5-5-5-5-5-5-5-5-8-10-10-10-10-10-10-10-10-10-10-10-10-10-10-10-10-|
D|---------------------------------------------------------------------------------|

I breakdown'et er der et fill spillet af guitar 2, direkte op til det alternative omkvæd:
e|---------|
B|---------|
G|---------|
D|-8--7--3-|
A|-8--7--3-|
D|-8--7--3-|

Alternative omkvæd, begge guitarer:
e|-----------------------------------------------------------------|
B|-----------------------------------------------------------------|
G|-----------------------------------------------------------------|
D|-0-0-0-0-0-0-0-3-3-3-3-3-3-3-3-3-5-5-5-5-5-5-5-5-5-5-5-5-5-5-5-5-|
A|-0-0-0-0-0-0-0-3-3-3-3-3-3-3-3-3-5-5-5-5-5-5-5-5-5-5-5-5-5-5-5-5-|
D|-0-0-0-0-0-0-0-3-3-3-3-3-3-3-3-3-5-5-5-5-5-5-5-5-5-5-5-5-5-5-5-5-|

Guitar 2 laver en outro-figur efter de første to rundgange som gentages frem til sangen slutter:
e|-------------------------------------------|
B|-------------------------------------------|
G|-15-15-15-15\14-14-14-12\10-10-10-10-10-10-|
D|-x--x--x--x--x--x--x--x--x--x--x--x--x--x--|
A|-13-13-13-13\12-12-12-10\8--8--8--8--8--8--|
D|-------------------------------------------|


Guitaren i både verset og i broen er mixet lavt og spiller nogle skæve/disset ting.
Hvis du spiller verset alene, uden musik, lyder det især skævt, men sammen med resten
af musikken gir det masser af mening, da bassens rolle supplerer til den skæve guitarfigur.

Intro-guitaren (eller opbygnings-guitaren, eller hvad man nu skal kalde den?) er 
behandlet med hård
distortion og rumklang.

Guitaren i verset og broen er ren, men behandlet med compressor og en lille-bitte smule rumklang.

Begge guitarer, i begge former for omkvæd, er behandlet
med distortion ala Rammstein-ownage-voldsomhed! ;-)

Hvis spørgsmål eller andet; skriv en kommentar!
Tap to rate this tab
# A B C D E F G H I J K L M N O P Q R S T U V W X Y Z