Song name
# A B C D E F G H I J K L M N O P Q R S T U V W X Y Z

Nephew - Taxa Triumf tab

----------------------------------------------------------------------------
			     Taxa Triumf - Nephew
----------------------------------------------------------------------------
Tabbed by: Bee-Ay
Email: Leviathan_ben@hotmail.com

Tuning: Standard.

Intro:
Spilles dæmpet.
Spilles med svag solid distortion.
e|----------------------------------------------------------------|
B|----------------------------------------------------------------|
G|----------------------------------------------------------------|
D|----------------------------------------------------------------|
A|-3-3-3-3-3-3--6-6-5-6-6-5---------------1-1-1-1-----------------|
E|---------------------------3-3-3-3-3-3--------------------------|


e|----------------------------------------------------------------|
B|----------------------------------------------------------------|
G|----------------------------------------------------------------|
D|----------------------------------------------------------------|
A|-3-3-3-3-3-3--6-6-5-6-6-5---------------------------------------|
E|---------------------------3-3-3-3-3-3--1-1-1-1-----------------|

Vers:
e|--------------------------|
B|--------------------------|
G|--------------------------|
D|--------------------------|
A|-1//3--------------1//3---|
E|--------------------------|


=== Intro riff ===

===    Vers    ===

Omkvæd: Med gufferen tight distortion!
e|--------------------------------------------------------------------|
B|--------------------------------------------------------------------|
G|--------------------------------------------------------------------|
D|-5-5-5-5-5-5-5-5-5-5-5-5-5-5-5-5--8-8-8-8-8-8-8-8-8-8-8-8-8-8-8-8---|
A|-3-3-3-3-3-3-3-3-3-3-3-3-3-3-3-3--6-6-6-6-6-6-6-6-6-6-6-6-6-6-6-6---|
E|--------------------------------------------------------------------|

e|--------------------------------------------------------------------|
B|--------------------------------------------------------------------|
G|--------------------------------------------------------------------|
D|--------------------------------------------------------------------|
A|--------------------------------------------------------------------|
E|-3-3-3-3-3-3-3-3--5-5-5-5-5-5-5-5--6-6-6-6-6-6-6-6--8-8-8-8-8-8-8-8-|


2. rundgang siger:
e|--------------------------------------------------------------------|
B|--------------------------------------------------------------------|
G|--------------------------------------------------------------------|
D|-5-5-5-5-5-5-5-5-3-3-3-3-3-3-3-3--8-8-8-8-8-8-8-8-7-7-7-7-7-7-7-7---|
A|-3-3-3-3-3-3-3-3-3-3-3-3-3-3-3-3--6-6-6-6-6-6-6-6-6-6-6-6-6-6-6-6---|
E|--------------------------------------------------------------------|

e|---------------------------------------------------------------------|
B|---------------------------------------------------------------------|
G|---------------------------------------------------------------------|
D|------------------7-7-7-7-7-7-7-7--8-8-8-8-8-8-8-8--1010101010101010-|
A|-5-5-5-5-5-5-5-5--5-5-5-5-5-5-5-5--6-6-6-6-6-6-6-6--8-8-8-8-8-8-8-8--|
E|-3-3-3-3-3-3-3-3-----------------------------------------------------|

=== Intro riff ===

===    Vers    ===

===   Omkvæd   ===

B-Stykke og outro:
e|--------------------------------------------------------|
B|--------------------------------------------------------|
G|--------------------------------------------------------|
D|--------------------------------------------------------|
A|--------------------------------------------------------|
E|-3-3----3-3----3-3----3-3--1-3-3----3-3----3-3----3-3---|

e|--------------------------------------------------------|
B|--------------------------------------------------------|
G|--------------------------------------------------------|
D|--------------------------------------------------------|
A|-6-6-6-6-6-6-6-6--3-3-3-3-3-3-3-3-----------------------|
E|-----------------------------------1-3-3-3-3-3-3-3-3----|

e|--------------------------------------------------------|
B|--------------------------------------------------------|
G|--------------------------------------------------------|
D|--------------------------------------------------------|
A|-5-5-5-5-5-5-5-5--6-6-6-6-6-6-6-6--3-3-3-3-3-3-3-3------|
E|--------------------------------------------------------|

e|--------------------------------------------------------|
B|--------------------------------------------------------|
G|--------------------------------------------------------|
D|--------------------------------------------------------|
A|--------------------------------------------------------|
E|-1-3-3----3-3----3-3----3-3----3-3----3-3----3-3----3-3-|

e|--------------------------------------------------------|
B|--------------------------------------------------------|
G|--------------------------------------------------------|
D|--------------------------------------------------------|
A|--------------------------------------------------------|
E|-3-3----3-3----3-3----3-3----3-3----3-3----3-3----3-3---|


Outro del:
e|--------------------------------------------------------------------|
B|--------------------------------------------------------------------|
G|--------------------------------------------------------------------|
D|-----------------------------------8-8-8-8-8-8-8-8--5-5-5-5-5-5-5-5-|
A|-6-6-6-6-6-6-6-6--3-3-3-3-3-3-3-3--6-6-6-6-6-6-6-6--3-3-3-3-3-3-3-3-|
E|--------------------------------------------------------------------|

e|--------------------------------------------------------|
B|--------------------------------------------------------|
G|--------------------------------------------------------|
D|--------------------------------------------------------|
A|--------------------------------------------------------|
E|-3-3----3-3----3-3----3-3----3-3----3-3----3-3----3-3---|

e|------------------------------------------------------------------------|
B|------------------------------------------------------------------------|
G|------------------------------------------------------------------------|
D|-----------------------------------8-8-8-8-8-8-8-8--5-5-5-5-5-5-5-5--5~-|
A|-6-6-6-6-6-6-6-6--3-3-3-3-3-3-3-3--6-6-6-6-6-6-6-6--3-3-3-3-3-3-3-3--3~-|
E|---------------------------------------------------------------------3~-|


- Jeg ved ikke hvorfor jeg skar den ud i pap.. Men hva' fanden..?
Tap to rate this tab
# A B C D E F G H I J K L M N O P Q R S T U V W X Y Z