Song name
# A B C D E F G H I J K L M N O P Q R S T U V W X Y Z

Nephew - Usa Dsb tab

----------------------------------------------------------------------------
			     USA DSB - Nephew
----------------------------------------------------------------------------
Tabbed by: Bee-Ay
Email: Leviathan_ben@hotmail.com

Tuning: Standard.

Skide hammerende fedt nr!
De akkorder som jeg har sat i parantes er hårdt slående slag.

Intro:
e|----------------------------------------------------------------------------|
B|----------------------------------------------------------------------------|
G|-(6)---(6)-------(6)-------(6)-------(6)-------(6)-------(6)-------(6)------|
D|--x-----x---------x---------x---------x---------x---------x---------x-------|
A|-(4)-4-(4)-4-4-4-(4)-4-4-4-(4)-4-4-4-(4)-4-4-4-(4)-4-4-4-(4)-4-4-4-(4)-4-4-4|
E|----------------------------------------------------------------------------|

WUUUUUUUUUUUuuuuuuuw:
e|-----------------------------------------------------------------------------------|
B|-----------------------------------------------------------------------------------|
G|*-(6)---(6)-------(6)-------(6)-------(6)-------(6)-------(6)-------(6)------4--4-*|
D|*--x-----x---------x---------x---------x---------x---------x---------x-------x--x-*|
A|--(4)-4-(4)-4-4-4-(4)-4-4-4-(4)-4-4-4-(4)-4-4-4-(4)-4-4-4-(4)-4-4-4-(4)-4-4--2--2--|
E|-----------------------------------------------------------------------------------|

Vers:
Chit chat hvor vil du hen
spin den flask' og lad den spå og bestemme igen

Kit kat crasher mit spejl
læg den smøg og læg dig ud med en nico-negl:

e|-------------------------------------------------------------------------------------|
B|-------------------------------------------------------------------------------------|
G|-4--4-------(6)-------(6)-------(6)-------(6)-------(6)-------(6)-------(6)-----4--4-|
D|-x--x--------x---------x---------x---------x---------x---------x---------x------x--x-|
A|-2--2---4-4-(4)-4-4-4-(4)-4-4-4-(4)-4-4-4-(4)-4-4-4-(4)-4-4-4-(4)-4-4-4-(4)-4-4-2--2-|
E|-------------------------------------------------------------------------------------|


Tik tak hvad skal der til
slå den tid og slå det fast hvad det er du vil

Zig zag sætter mit sejl
spænd den hjelm og spæn af sted som en fucking fejl:


Omkvæd:
" I USA, med DSB "
e|------------------------------------------------------------------
B|-----3----3-----2-----3-----2----------2----2-----3-----2-----3---
G|---4--------4-----4-----4-----4------2--------2-----2-----2-----2-
D|-4------4-----4-----4-----4--------2------2-----2-----2-----2-----
A|------------------------------------------------------------------
E|------------------------------------------------------------------

e|------------------------------------------------------------------
B|-----3----3-----2-----3-----2----------2----2-----3-----2-----3---
G|---4--------4-----4-----4-----4------2--------2-----2-----2-----2-
D|-4------4-----4-----4-----4--------2------2-----2-----2-----2-----
A|------------------------------------------------------------------
E|------------------------------------------------------------------

e|------------------------------------------------------------------
B|-----3----3-----2-----3-----2----------2----2-----3-----2-----3---
G|---4--------4-----4-----4-----4------2--------2-----2-----2-----2-
D|-4------4-----4-----4-----4--------2------2-----2-----2-----2-----
A|------------------------------------------------------------------
E|------------------------------------------------------------------

e|------------------------------------------------------------------|
B|-----3----3-----2-----3-----2----------2-----2-----2~-------------|
G|---4--------4-----4-----4-----4------2---2-----2------------------|
D|-4------4-----4-----4-----4--------2-------2-----2----------------|
A|------------------------------------------------------------------|
E|------------------------------------------------------------------|



Som en fucking fejl!:
Guitar-Fill:

e|----------------------------------------------------------------------------------------
B|----------------------------------------------------------------------------------------
G|-6--6-6--7-7-7-9-9--11-11-11-13--13--13--14--14--13--13--13--13--13--13--13--14--14--14-
D|-x--x-x--x-x-x-x-x--x--x--x--x---x---x---x---x---x---x---x---x---x---x---x---x---x---x--
A|-4--4-4--5-5-5-7-7--9--9--9--11--11--11--12--12--11--11--11--11--11--11--11--12--12--12-
E|----------------------------------------------------------------------------------------

e|--------------------------------------------------------------------------------------------------|
B|--------------------------------------------------------------------------------------------------|
G|-6--6-6--7-7-7-9-9--11-11-11-13--13--13--14--14--13--13--13--13--13--13--13--16--16--16--16-16-16-|
D|-x--x-x--x-x-x-x-x--x--x--x--x---x---x---x---x---x---x---x---x---x---x---x---x---x---x---x--x--x--|
A|-4--4-4--5-5-5-7-7--9--9--9--11--11--11--12--12--11--11--11--11--11--11--11--14--14--14--14-14-14-|
E|--------------------------------------------------------------------------------------------------|


Ding dong drikker i flok
drop den pub og drop forbi dem der har fået nok

Flik flak fucker min fejl
køb den bil og kør af sted med et stivnet smile:

ændring på "smile":
e|-----------------------------------------------------------------|
B|-----------------------------------------------------------------|
G|-6--6-6-6-6-6--7--7-7-7-7-7-7-7--9-9-9-9-9-9-9-9-9-9-9-9-9--4--4-|
D|-x--x-x-x-x-x--x--x-x-x-x-x-x-x--x-x-x-x-x-x-x-x-x-x-x-x-x--x--x-|
A|-4--4-4-4-4-4--5--5-5-5-5-5-5-5--7-7-7-7-7-7-7-7-7-7-7-7-7--2--2-|
E|-----------------------------------------------------------------|


Fill:
e|--------------------------------------------------------------------|
B|--------------------------------------------------------------------|
G|--------------------------------------------------------------------|
D|--------------------------------------------------------------------|
A|-9-9-9-9-9-9-9-9--7-7-7-7-7-7-7-7--5-5-5-5-5-5-5-5--4-4-4-4-4-4-4-4-|
E|-7-7-7-7-7-7-7-7--5-5-5-5-5-5-5-5--3-3-3-3-3-3-3-3--2-2-2-2-2-2-2-2-|


Alternativ Omkvæd, Fyr den af!:
e|--------------------------------------------------------
B|--------------------------------------------------------
G|----------------------------------------7-7-7-7-6-6-6-4-
D|-4-4--4-4--4----------------------------x-x-x-x-x-x-x-x-
A|-2-2--2-2--2--5-5--5-5--5--7-7--7-7--7--5-5-5-5-4-4-4-2-
E|--------------3-3--3-3--3--5-5--5-5--5------------------

e|------------------------------------------------------|
B|------------------------------------------------------|
G|------------------------------------------------------|
D|-4-4--4-4--4------------------------------------------|
A|-2-2--2-2--2--5-5--5-5--5--7-7--7-7--7---7-7--7-7-7-7-|
E|--------------3-3--3-3--3--5-5--5-5--5---5-5--5-5-5-5-|


e|-----------------------------------------------------------------
B|-----------------------------------------------------------------
G|-----------------------------------------------------------------
D|-9-9-9-9-9-9-9-9-9-9-9-9-9-9-9-9-7-7-7-7-7-7-7-7-7-7-7-7-7-7-7-7-
A|-x-x-x-x-x-x-x-x-x-x-x-x-x-x-x-x-x-x-x-x-x-x-x-x-x-x-x-x-x-x-x-x-
E|-7-7-7-7-7-7-7-7-7-7-7-7-7-7-7-7-5-5-5-5-5-5-5-5-5-5-5-5-5-5-5-5-

e|-----------------------------------------------------------------|
B|-----------------------------------------------------------------|
G|-----------------------------------------------------------------|
D|-5-5-5-5-5-5-5-5-5-5-5-5-5-5-5-5-4-4-4-4-4-4-4-4-4-4-4-4-4-4-4-4-|
A|-x-x-x-x-x-x-x-x-x-x-x-x-x-x-x-x-x-x-x-x-x-x-x-x-x-x-x-x-x-x-x-x-|
E|-3-3-3-3-3-3-3-3-3-3-3-3-3-3-3-3-2-2-2-2-2-2-2-2-2-2-2-2-2-2-2-2-|

e|--------------------------------------------------------
B|--------------------------------------------------------
G|----------------------------------------7-7-7-7-6-6-6-4-
D|-4-4--4-4--4----------------------------x-x-x-x-x-x-x-x-
A|-2-2--2-2--2--5-5--5-5--5--7-7--7-7--7--5-5-5-5-4-4-4-2-
E|--------------3-3--3-3--3--5-5--5-5--5------------------

e|------------------------------------------------------|
B|------------------------------------------------------|
G|------------------------------------------------------|
D|-4-4--4-4--4------------------------------------------|
A|-2-2--2-2--2--5-5--5-5--5--7-7--7-7--7---7-7--7-7-7-7-|
E|--------------3-3--3-3--3--5-5--5-5--5---5-5--5-5-5-5-|


- Håber det virker. Tak.


Tap to rate this tab
# A B C D E F G H I J K L M N O P Q R S T U V W X Y Z