Song name
# A B C D E F G H I J K L M N O P Q R S T U V W X Y Z

Nerd - Maybe tab

Maybe by NERD
from Fly Or Die

These are just the lead guitar parts, which are played in the background

VERSE
e-----------------------------------|
B-------------12---------12---------|
G-------12-14----14-14b-----14-14b--|
D-12-14-----------------------------|
A-----------------------------------|
E-----------------------------------|

CHORUS
e-------|
B-------|
G-14br--|
D-------|
A-------|
E-------|

2.42
e--------------------------------12--|
B-------------12-----------------12--|
G-------12-14----14p12-14p12-----12--|
D-12-14----------------------14------|
A------------------------------------|
E------------------------------------|

Any corrections please comment
Thanks

Tap to rate this tab
# A B C D E F G H I J K L M N O P Q R S T U V W X Y Z