Song name
# A B C D E F G H I J K L M N O P Q R S T U V W X Y Z

Nerd - Ive Seen The Light tab

-------------------------------------------------------------------------------
			    I've Seen The Light - N.E.R.D
-------------------------------------------------------------------------------
Tabbed by: alexzx636
Artist: N.E.R.D.
Song: I've Seen The Light
Album: Nothing
Track# 06


Tuning: Standard EADGBe

e|------------------------------|---------------------|----------------------------|
B|------------------------------|---------------------|----------------------------|
G|------------------------------|---------------------|-----9-9-9----9-7~--6-------|
D|--2--2-4-5~---5-4--------4--2-|-2--2-4-5~---5-7--9~-|--9---------9---------7--9~-|
A|------------------5~---5------|---------------------|----------------------------|
E|------------------------------|---------------------|----------------------------|


			CHORUS

       		          C       D                                    Em      REPEAT CHORUS

e|---------------------|--0---00--2--22--0---00--2--22--0---00--2--22---|
B|---------------------|--1---11--3--33--1---11--3--33--1---11--3--33---|
G|-4---2---------------|--0---00--2--22--0---00--2--22--0---00--2--22---|
D|---5---4--5-2-4------|--2---22--0--00--2---22--0--00--2---22---------2|
A|----------------5--7~|--3---33---------3---33---------3---33---------2|
E|---------------------|--0---00---------0---00---------0---00---------0|
Tap to rate this tab
 
# A B C D E F G H I J K L M N O P Q R S T U V W X Y Z