Guitaretab - guitar tabs
Song name
# A B C D E F G H I J K L M N O P Q R S T U V W X Y Z

Nerd - Dont Worry About It tab

Artist: Nerd
Song: Don't Worry About It
Tabbed by: Jason Toothaker
Email: Jason_toothy@yahoo.com

Tuning:
Main Riff (parenthesized notes are played only in live version)
e|--------------------------------------------------------------------------|
B|--------------------------------------------------------------------------|
G|--------------------------------------------------------------------------|
D|(4)--(4)(4)--(4)(4)---(4)--(4)(4)-(4)(4)---------------------------------|
A|--------------------------------------------------------------------------|
E|-2----2--2----2--2-----2----2--2----2--2----------------------------------|

This is the fill that comes in a couple times in the verses
e|--------------------------------------------------------------------------|
B|--5p3-5/(6)-7-------------------------------------------------------------|
G|--------------------------------------------------------------------------|
D|--------------------------------------------------------------------------|
A|--------------------------------------------------------------------------|
E|--------------------------------------------------------------------------|
[ Tab from: http://www.guitaretab.com/n/nerd/49453.html ]
Kick ass riff (Correct Version.. Finally)
e|--------------------------------------------------------------------------|
B|-12b(13)-1210~~~~~~-------------------12b(13)-1210~~~~------------------|
G|---------------------11p9----11~~-----------------------11----9h11~~~~~~--|
D|--------------------------11-------------------------------11-------------|
A|--------------------------------------------------------------------------|
E|--------------------------------------------------------------------------|

e|--------------------------------------------------------------------------|
B|-12b(13)-1210~~~~~~------------------------------------------------------|
G|---------------------11p9---9h11~~~~~~~~----------------------------------|
D|--------------------------11----------------------------------------------|
A|--------------------------------------------------------------------------|
E|--------------------------------------------------------------------------|

After 2nd "Don't worry 'bout it" ... 

	Ooohhhhhhhhhhhhhhooooohhhhhaaaaaaaaaaaaaaaaaaaaaaaaaaaaaaaaaaaaaa"
e|--------------------------------------------------------------------------|
B|--------------------------------------------------------------------------|
G|-------1010101010101010----------12121212-7-7-7-7-7-7-7-7-7-7-7-7-7-7-7---|
D|-------1010101010101010-10101010-12121212-7-7-7-7-7-7-7-7-7-7-7-7-7-7-7---|
A|--------8-8-8-8-8-8-8-8-10101010-10101010-5-5-5-5-5-5-5-5-5-5-5-5-5-5-5---|
E|-------------------------8-8-8-8------------------------------------------|

(Timing)  1+2+3+4+5+6+7+8  1+2+3+4  1+2+3+4 1+2+3+4+5+6+7+8+1+2+3+4+5+6+8 

I welcome comments and critiques

Jason @ jason_toothy@yahoo.com
Related for Dont Worry About It tab