Song name
# A B C D E F G H I J K L M N O P Q R S T U V W X Y Z

Nerf Herder - Do You Like Waffles tab

Help us improve GuitareTab! Take a short survey!
---------------------------------------------------------------------------
                   Do You Like Waffles - Nerf Herder
-------------------------------------------------------------------------------
Tabbed by: Sky Plunkett
Email: skyjetsky@aol.com

Tuning: Standard

e|---------------------------------------------------------------------------|
B|---------------------------------------------------------------------------|
G|---------------------------------------------------------------------------|
D|---------------------------------------------------------------------------|
A|---------------------------------------------------------------------------|
E|-----5--5--5---9--12---10--10--10--9--7-----------------------------------|

e|---------------------------------------------------------------------------|
B|---------------------------------------------------------------------------|
G|---------------------------------------------------------------------------|
D|---------------------------------------------------------------------------|
A|------------------------9--9--7--9--7--------------------------------------|
E|-----5--5--5---9--12-------------------------------------------------------|

e|---------------------------------------------------------------------------|
B|---------------------------------------------------------------------------|
G|---------------------------------------------------------------------------|
D|---------------------------------------------------------------------------|
A|-------------------------------------------7--7--7--7--9--9--7--9--7-------|
E|------5--5--5--9--12---10--10--10--9--7------------------------------------|

e|---------------------------------------------------------------------------|
B|---------------------------------------------------------------------------|
G|---------------------------------------------------------------------------|
D|---------------------------------------------------------------------------|
A|-------------------------------7---12-----------Repeat This Section--------|
E|-------5--5---9---12--10--10------------------------Three Times------------|

e|---------------------------------------------------------------------------|
B|---------------------------------------------------------------------------|
G|---------------------------------------------------------------------------|
D|---------------------------------------------------------------------------|
A|--------7--7--7--7--9--9--7--9--7------------------------------------------|
E|---------------------------------------------------------------------------|

Related for Do You Like Waffles tab