Song name
# A B C D E F G H I J K L M N O P Q R S T U V W X Y Z

Nerfherders - Buffy tab

Title: Buffy the Vampire Slayer (Theme Song)
Artist: Nerf Herder
Tabber: XynderSpyk

Standard E Tuning

The intro is some synthesized bass on a
keyboard or whatever in the notes of E, F#, G, D
then scrape pick down strings and begin...

e|-----------------|-----------------|
B|-----------------|-----------------|
G|--9---11-12---7--|--77---9-11---7--|
D|--9---11-12---7--|--77---9-11---7--|
A|--7---9--10---5--|--55---7-9----5--|
E|-----------------|-----------------|

Then scrape pick once again and play above chords in same timing, 
only continuously strumming. Then with bass solo...

|-----------------------|
|-----------------------|
|--9---9/11--9-7---7-6--|
|--7---7/9---7-5---5-4--|
|-----------------------|
|-----------------------|  

Scrap again... (x means strum this many times, fast)

|-------10-12--------10-12--------7--10-------------------------|
|--12---12-12---12---12-12---10---10-10---10---11--12/-12/------|
|--9------------9------------7------------7----8---9-/-9-/------|
|-----------------------------------------------------------2~--|
|-----------------------------------------------------------2~--|
|-----------------------------------------------------------0~--|
   12x  3x 2x   12x  3x 2x   12x  3x  2x  16x  8x

And for those of you who want the bass tab... 

|----------------|   Play each note repeatedly
|----------------|   Listen to song for accents
|--------2--5----|   
|--0--3----------|   Play this twice

Bass solo...

|--------------------------------------|
|--7--7p5---5-7-5-------5--------------|
|---------7---------5h7---7-5----------|
|-----------------0-----------7--7777--|

|----------------|-----------------|   Play repeatedly like before
|----------------|-----------------|   except slides and final E
|--------2--5----|--6--7/--7/------|   
|--0--3----------|-------------0~--|   

I've studied this thing pretty intensively so by all means don't 
take this as fact, but it's pretty damn close.
Tap to rate this tab
# A B C D E F G H I J K L M N O P Q R S T U V W X Y Z