Song name
# A B C D E F G H I J K L M N O P Q R S T U V W X Y Z

Nerina Pallot - Learning To Breathe tab

---------------------------------------------------------------------------
		   Learning to Breathe - Nerina Pallot
---------------------------------------------------------------------------
Tabbed by: tandjk
Email: tandjk@gmail.com

Tuning: Standard

Chords used: 
		G: 320030
            Cadd9: 032030



     |    G     | |    Cadd9   | |    Cadd9   | |    Cadd9   |
e|-----------------------------------------------------------------------|
B|--------------3-------------3--------------3-------------3-------------|
G|------0-----0------0------0-------0------0-------0-----0---------------|x3
D|----0-----0-------------2--------------2-------------2-----------------|
A|--------2-------3-----3--------3-----3--------3----3-------------------|
E|--3--------------------------------------------------------------------|

then play this bit:

e|-----------------------------------------------------------------------|
B|--------------3-------------3----3-----3-------3-----3-----------------|
G|------0-----0------0------0--------0-----0-------0-----0---------------|
D|----0-----0-------------2------2-----2-------2-----2-------------------|
A|--------2-------3-----3------------------------------------------------|
E|--3--------------------------------------------------------------------|

and repeat til the chorus


| /  slide up
| \  slide down
| h  hammer-on
| p  pull-off
| ~  vibrato
| +  harmonic
| x  Mute note
===========================================================================
Tap to rate this tab
# A B C D E F G H I J K L M N O P Q R S T U V W X Y Z