Song name
# A B C D E F G H I J K L M N O P Q R S T U V W X Y Z

Nerina Pallot - Everyones Gone To War tab

----------------------------------------------------------------------------
		EVERYONE'S GONE TO WAR - Nerina Pallot 
----------------------------------------------------------------------------
Tabbed by: Nightshade 
Email: Christian@thebournes.com

Tuning: standard 

Intro 

e|-0-0-0-0-0-|-0-0-0-0-0-|-0-0-0-0-|-0--0-|
B|-2-2-2-3-3-|-0-0-0-2-2-|-2-0-0-0-|-0--2-|
G|-2-2-2-2-2-|-2-2-2-2-2-|-2-2-2-2-|-0--2-|
D|-2-2-2-2-2-|-2-2-2-2-2-|-2-2-2-2-|-2--2-|
A|-0-0-0-0-0-|-0-0-0-0-0-|-0-0-0-0-|-0--0-|
E|-----------|-----------|---------|------|

e|-0-0-0-0-0-|-0-0-0-0-0-|-0-0-0-0-|-0--0-|
B|-2-2-2-3-3-|-0-0-0-2-2-|-2-0-0-0-|-0--2-|
G|-2-2-2-2-2-|-2-2-2-2-2-|-2-2-2-2-|-0--2-|
D|-2-2-2-2-2-|-2-2-2-2-2-|-2-2-2-2-|-2--2-|
A|-0-0-0-0-0-|-0-0-0-0-0-|-0-0-0-0-|-0--0-|
E|-----------|-----------|---------|------|

Verse 1 

e|-0-0-0-0-|-0-0-0-0-|-0-0-0-0-|-0-0-0-0-|
B|-2-2-2-2-|-2-2-2-2-|-2-2-2-2-|-2-2-2-2-|
G|-2-2-2-2-|-2-2-2-2-|-2-2-2-2-|-2-2-2-2-|
D|-2-2-2-2-|-2-2-2-2-|-2-2-2-2-|-2-2-2-2-|
A|-0-0-0-0-|-0-0-0-0-|-0-0-0-0-|-0-0-0-0-|
E|---------|---------|---------|---------|

e|-0-0-0-0-|-0-0-0-0-|-0-0-0-0-|-3-3-3-0-|
B|-2-2-2-2-|-2-2-2-2-|-2-2-2-2-|-3-3-3-2-|
G|-2-2-2-2-|-2-2-2-2-|-2-2-2-2-|-0-0-0-2-|
D|-2-2-2-2-|-2-2-2-2-|-2-2-2-2-|-0-0-0-2-|
A|-0-0-0-0-|-0-0-0-0-|-0-0-0-0-|-2-2-2-0-|
E|---------|---------|---------|-3-3-3---|

Pre-Chorus 

e|-------------|-------------|-------------|-------------|
B|-------------|-------------|-------------|-------------|
G|-------------|-------------|-------------|-------------|
D|-5-4/5-5-4/5-|-5-4/5-5-7-7-|-5-4/5-5-4/5-|-5-4/5-5-7-7-|
A|-5-4/5-5-4/5-|-5-4/5-5-7-7-|-5-4/5-5-4/5-|-5-4/5-5-7-7-|
E|-3-2/3-3-2/3-|-3-2/3-3-5-5-|-3-2/3-3-2/3-|-3-2/3-3-5-5-|

e|-------------|-------------|-------------|-------------|
B|-------------|-------------|-------------|-------------|
G|-------------|-------------|-------------|-------------|
D|-5-4/5-5-4/5-|-5-4/5-5-7-7-|-5-4/5-5-4/5-|-5-4/5-5-7-7-|
A|-5-4/5-5-4/5-|-5-4/5-5-7-7-|-5-4/5-5-4/5-|-5-4/5-5-7-7-|
E|-3-2/3-3-2/3-|-3-2/3-3-5-5-|-3-2/3-3-2/3-|-3-2/3-3-5-5-|

Chorus 

e|-0-0-0-0-|-2-2-2-2-|-0-0-0-0-|-2-2-2-2-|
B|-2-2-2-2-|-3-3-3-3-|-2-2-2-2-|-3-3-3-3-|
G|-2-2-2-2-|-2-2-2-2-|-2-2-2-2-|-2-2-2-2-|
D|-2-2-2-2-|-0-0-0-0-|-2-2-2-2-|-0-0-0-0-|
A|-0-0-0-0-|---------|-0-0-0-0-|---------|
E|---------|---------|---------|---------|

e|-0-0-0-0-|-2-2-2-2-|-3-3-3-3-|-3-3-3-3-|
B|-2-2-2-2-|-3-3-3-3-|-3-3-3-3-|-3-3-3-3-|
G|-2-2-2-2-|-2-2-2-2-|-0-0-0-0-|-0-0-0-0-|
D|-2-2-2-2-|-0-0-0-0-|-0-0-0-0-|-0-0-0-0-|
A|-0-0-0-0-|---------|-2-2-2-2-|-2-2-2-2-|
E|---------|---------|-3-3-3-3-|-3-3-3-3-|

e|-0-0-0-0-|-2-2-2-2-|-0-0-0-0-|-2-2-2-2-|
B|-2-2-2-2-|-3-3-3-3-|-2-2-2-2-|-3-3-3-3-|
G|-2-2-2-2-|-2-2-2-2-|-2-2-2-2-|-2-2-2-2-|
D|-2-2-2-2-|-0-0-0-0-|-2-2-2-2-|-0-0-0-0-|
A|-0-0-0-0-|---------|-0-0-0-0-|---------|
E|---------|---------|---------|---------|

e|-0-0-0-0-|-2-2-2-2-|-3-3-3-3-|-3-3-3-3-|
B|-2-2-2-2-|-3-3-3-3-|-3-3-3-3-|-3-3-3-3-|
G|-2-2-2-2-|-2-2-2-2-|-0-0-0-0-|-0-0-0-0-|
D|-2-2-2-2-|-0-0-0-0-|-0-0-0-0-|-0-0-0-0-|
A|-0-0-0-0-|---------|-2-2-2-2-|-2-2-2-2-|
E|---------|---------|-3-3-3-3-|-3-3-3-3-|

Verse 2 

e|-0-0-0-0-|-0-0-0-0-|-0-0-0-0-|-0-0-0-0-|
B|-2-2-2-2-|-2-2-2-2-|-2-2-2-2-|-2-2-2-2-|
G|-2-2-2-2-|-2-2-2-2-|-2-2-2-2-|-2-2-2-2-|
D|-2-2-2-2-|-2-2-2-2-|-2-2-2-2-|-2-2-2-2-|
A|-0-0-0-0-|-0-0-0-0-|-0-0-0-0-|-0-0-0-0-|
E|---------|---------|---------|---------|

e|-0-0-0-0-|-0-0-0-0-|-0-0-0-0-|-3-3-3-0-|
B|-2-2-2-2-|-2-2-2-2-|-2-2-2-2-|-3-3-3-2-|
G|-2-2-2-2-|-2-2-2-2-|-2-2-2-2-|-0-0-0-2-|
D|-2-2-2-2-|-2-2-2-2-|-2-2-2-2-|-0-0-0-2-|
A|-0-0-0-0-|-0-0-0-0-|-0-0-0-0-|-2-2-2-0-|
E|---------|---------|---------|-3-3-3---|

Pre-Chorus 

e|-------------|-------------|-------------|-------------|
B|-------------|-------------|-------------|-------------|
G|-------------|-------------|-------------|-------------|
D|-5-4/5-5-4/5-|-5-4/5-5-7-7-|-5-4/5-5-4/5-|-5-4/5-5-7-7-|
A|-5-4/5-5-4/5-|-5-4/5-5-7-7-|-5-4/5-5-4/5-|-5-4/5-5-7-7-|
E|-3-2/3-3-2/3-|-3-2/3-3-5-5-|-3-2/3-3-2/3-|-3-2/3-3-5-5-|

e|-------------|-------------|-------------|-------------|
B|-------------|-------------|-------------|-------------|
G|-------------|-------------|-------------|-------------|
D|-5-4/5-5-4/5-|-5-4/5-5-7-7-|-5-4/5-5-4/5-|-5-4/5-5-7-7-|
A|-5-4/5-5-4/5-|-5-4/5-5-7-7-|-5-4/5-5-4/5-|-5-4/5-5-7-7-|
E|-3-2/3-3-2/3-|-3-2/3-3-5-5-|-3-2/3-3-2/3-|-3-2/3-3-5-5-|

Chorus 

e|-0-0-0-0-|-2-2-2-2-|-0-0-0-0-|-2-2-2-2-|
B|-2-2-2-2-|-3-3-3-3-|-2-2-2-2-|-3-3-3-3-|
G|-2-2-2-2-|-2-2-2-2-|-2-2-2-2-|-2-2-2-2-|
D|-2-2-2-2-|-0-0-0-0-|-2-2-2-2-|-0-0-0-0-|
A|-0-0-0-0-|---------|-0-0-0-0-|---------|
E|---------|---------|---------|---------|

e|-0-0-0-0-|-2-2-2-2-|-3-3-3-3-|-3-3-3-3-|
B|-2-2-2-2-|-3-3-3-3-|-3-3-3-3-|-3-3-3-3-|
G|-2-2-2-2-|-2-2-2-2-|-0-0-0-0-|-0-0-0-0-|
D|-2-2-2-2-|-0-0-0-0-|-0-0-0-0-|-0-0-0-0-|
A|-0-0-0-0-|---------|-2-2-2-2-|-2-2-2-2-|
E|---------|---------|-3-3-3-3-|-3-3-3-3-|

e|-0-0-0-0-|-2-2-2-2-|-0-0-0-0-|-2-2-2-2-|
B|-2-2-2-2-|-3-3-3-3-|-2-2-2-2-|-3-3-3-3-|
G|-2-2-2-2-|-2-2-2-2-|-2-2-2-2-|-2-2-2-2-|
D|-2-2-2-2-|-0-0-0-0-|-2-2-2-2-|-0-0-0-0-|
A|-0-0-0-0-|---------|-0-0-0-0-|---------|
E|---------|---------|---------|---------|

e|-0-0-0-0-|-2-2-2-2-|-3-3-3-3-|-3-3-3-3-|
B|-2-2-2-2-|-3-3-3-3-|-3-3-3-3-|-3-3-3-3-|
G|-2-2-2-2-|-2-2-2-2-|-0-0-0-0-|-0-0-0-0-|
D|-2-2-2-2-|-0-0-0-0-|-0-0-0-0-|-0-0-0-0-|
A|-0-0-0-0-|---------|-2-2-2-2-|-2-2-2-2-|
E|---------|---------|-3-3-3-3-|-3-3-3-3-|

Middle 8 

e|-0-0-0-0-|-2-2-2-2-|-0-0-0-0-|-2-2-2-2-|
B|-2-2-2-2-|-3-3-3-3-|-2-2-2-2-|-3-3-3-3-|
G|-2-2-2-2-|-2-2-2-2-|-2-2-2-2-|-2-2-2-2-|
D|-2-2-2-2-|-0-0-0-0-|-2-2-2-2-|-0-0-0-0-|
A|-0-0-0-0-|---------|-0-0-0-0-|---------|
E|---------|---------|---------|---------|

e|-0-0-0-0-|-2-2-2-2-|-3-3-3-3-|-3-3-3-3-|
B|-2-2-2-2-|-3-3-3-3-|-3-3-3-3-|-3-3-3-3-|
G|-2-2-2-2-|-2-2-2-2-|-0-0-0-0-|-0-0-0-0-|
D|-2-2-2-2-|-0-0-0-0-|-0-0-0-0-|-0-0-0-0-|
A|-0-0-0-0-|---------|-2-2-2-2-|-2-2-2-2-|
E|---------|---------|-3-3-3-3-|-3-3-3-3-|

Intro 

e|-0-0-0-0-0-|-0-0-0-0-0-|-0-0-0-0-|-0--0-|
B|-2-2-2-3-3-|-0-0-0-2-2-|-2-0-0-0-|-0--2-|
G|-2-2-2-2-2-|-2-2-2-2-2-|-2-2-2-2-|-0--2-|
D|-2-2-2-2-2-|-2-2-2-2-2-|-2-2-2-2-|-2--2-|
A|-0-0-0-0-0-|-0-0-0-0-0-|-0-0-0-0-|-0--0-|
E|-----------|-----------|---------|------|

Pre-Chorus 

e|-------------|-------------|-------------|-------------|
B|-------------|-------------|-------------|-------------|
G|-------------|-------------|-------------|-------------|
D|-5-4/5-5-4/5-|-5-4/5-5-7-7-|-5-4/5-5-4/5-|-5-4/5-5-7-7-|
A|-5-4/5-5-4/5-|-5-4/5-5-7-7-|-5-4/5-5-4/5-|-5-4/5-5-7-7-|
E|-3-2/3-3-2/3-|-3-2/3-3-5-5-|-3-2/3-3-2/3-|-3-2/3-3-5-5-|

e|-------------|-------------|-------------|-------------|
B|-------------|-------------|-------------|-------------|
G|-------------|-------------|-------------|-------------|
D|-5-4/5-5-4/5-|-5-4/5-5-7-7-|-5-4/5-5-4/5-|-5-4/5-5-7-7-|
A|-5-4/5-5-4/5-|-5-4/5-5-7-7-|-5-4/5-5-4/5-|-5-4/5-5-7-7-|
E|-3-2/3-3-2/3-|-3-2/3-3-5-5-|-3-2/3-3-2/3-|-3-2/3-3-5-5-|

Chorus 

e|-0-0-0-0-|-2-2-2-2-|-0-0-0-0-|-2-2-2-2-|
B|-2-2-2-2-|-3-3-3-3-|-2-2-2-2-|-3-3-3-3-|
G|-2-2-2-2-|-2-2-2-2-|-2-2-2-2-|-2-2-2-2-|
D|-2-2-2-2-|-0-0-0-0-|-2-2-2-2-|-0-0-0-0-|
A|-0-0-0-0-|---------|-0-0-0-0-|---------|
E|---------|---------|---------|---------|

e|-0-0-0-0-|-2-2-2-2-|-3-3-3-3-|-3-3-3-3-|
B|-2-2-2-2-|-3-3-3-3-|-3-3-3-3-|-3-3-3-3-|
G|-2-2-2-2-|-2-2-2-2-|-0-0-0-0-|-0-0-0-0-|
D|-2-2-2-2-|-0-0-0-0-|-0-0-0-0-|-0-0-0-0-|
A|-0-0-0-0-|---------|-2-2-2-2-|-2-2-2-2-|
E|---------|---------|-3-3-3-3-|-3-3-3-3-|

e|-0-0-0-0-|-2-2-2-2-|-0-0-0-0-|-2-2-2-2-|
B|-2-2-2-2-|-3-3-3-3-|-2-2-2-2-|-3-3-3-3-|
G|-2-2-2-2-|-2-2-2-2-|-2-2-2-2-|-2-2-2-2-|
D|-2-2-2-2-|-0-0-0-0-|-2-2-2-2-|-0-0-0-0-|
A|-0-0-0-0-|---------|-0-0-0-0-|---------|
E|---------|---------|---------|---------|

e|-0-0-0-0-|-2-2-2-2-|-3-3-3-3-|-3-3-3-3-|
B|-2-2-2-2-|-3-3-3-3-|-3-3-3-3-|-3-3-3-3-|
G|-2-2-2-2-|-2-2-2-2-|-0-0-0-0-|-0-0-0-0-|
D|-2-2-2-2-|-0-0-0-0-|-0-0-0-0-|-0-0-0-0-|
A|-0-0-0-0-|---------|-2-2-2-2-|-2-2-2-2-|
E|---------|---------|-3-3-3-3-|-3-3-3-3-|

e|-0-0-0-0-|-2-2-2-2-|-0-0-0-0-|-2-2-2-2-|
B|-2-2-2-2-|-3-3-3-3-|-2-2-2-2-|-3-3-3-3-|
G|-2-2-2-2-|-2-2-2-2-|-2-2-2-2-|-2-2-2-2-|
D|-2-2-2-2-|-0-0-0-0-|-2-2-2-2-|-0-0-0-0-|
A|-0-0-0-0-|---------|-0-0-0-0-|---------|
E|---------|---------|---------|---------|

e|-0-0-0-0-|-2-2-2-2-|-3-3-3-3-|-3-3-3-3-|
B|-2-2-2-2-|-3-3-3-3-|-3-3-3-3-|-3-3-3-3-|
G|-2-2-2-2-|-2-2-2-2-|-0-0-0-0-|-0-0-0-0-|
D|-2-2-2-2-|-0-0-0-0-|-0-0-0-0-|-0-0-0-0-|
A|-0-0-0-0-|---------|-2-2-2-2-|-2-2-2-2-|
E|---------|---------|-3-3-3-3-|-3-3-3-3-|

Outro 

e|-0-0-0-0-0-|-0-0-0-0-0-|-0-0-0-0-|-0~~~~|
B|-2-2-2-3-3-|-0-0-0-2-2-|-2-0-0-0-|-0~~~~|
G|-2-2-2-2-2-|-2-2-2-2-2-|-2-2-2-2-|-0~~~~|
D|-2-2-2-2-2-|-2-2-2-2-2-|-2-2-2-2-|-2~~~~|
A|-0-0-0-0-0-|-0-0-0-0-0-|-0-0-0-0-|-0~~~~|
E|-----------|-----------|---------|------|


| /  slide up
| \  slide down
| h  hammer-on
| p  pull-off
| ~  vibrato
| +  harmonic
| x  Mute note
============================================================================
Tap to rate this tab
 
# A B C D E F G H I J K L M N O P Q R S T U V W X Y Z