Song name
# A B C D E F G H I J K L M N O P Q R S T U V W X Y Z

Nerina Pallot - Everybodys Gone To War tab

intro

e -----------------3---0----------|
b -2-3-0-3-2-0-2-0-3-3-0----------|
g -2-2-2-2-2-2-2-2-0-0-0-x2-------|
d -2-2-2-2-2-2-2-2-0-0-2----------|
a ---------------------2----------|
e -----------------3-2-0----------|

verse
guitar 1
e -------------------------------|
b ----------10-------------------|
g -2-2-2----9----2-2-2-----------|
d -2-2-2----7----2-2-2-5---------|
a -0-0-0----0----0-0-0-5---------|
e ---3-------------3---3---------|
  pm....  gt2^     pm......

bridge

there is 2 diferent bridges, this is number 1, 4 guitar 1

e --------------3-3-----------------------------3-3------------------|
b ---3--3-3--3--3-3---3--3-3--3------3--3-3--3--3-3---3--3-3--3------|
g --2-2-----2-2-0-0--2-2-----2-2-2--2-2-----2-2-0-0--2-2-----2-2-----|
d -0---0-0-0----0-0-0---0-0-0----2-0---0-0-0----0-0-0---0-0-0--------|
a -------------------------------0-----------------------------------|
e --------------3-2-----------------------------3-2------------------|
                                pm^just A

bridge

this is bridge number 2, 4 guitar 2

e ----------------------------------------|
b ----------------------------------------|
g --------2-----------------2-------------|
d -5-5----2-5-5------5-5----2-5-5---------|
a -5-5-x2-0-5-5-x2-7-5-5-x2-0-5-5-x3------|
e -3-2------3-2----5-3-2------3-2---------|
  pm...     pm...........     pm...

chorus

there is also 2 dif chorus', this number 1, 4 guitar 1

e --------3----------------3------------|
b ---3----3-----------3----3------------|
g -2-2-x3-0---------2-2-x3-0------------|
d -2-0----0-5-4-2-0-2-0----0-5-4-2s7----|
a -0----------------0-------------------|
e --------3----------------3------------|

this is chorus number 2, 4 guitar 2

e ---------------------------------|
b ---------------------------------|
g ---7-----------7-----------------|
d -7-7-x3-5-5--7-7-x3-5-5----------|
a -7-5----5-5--7-5----5-5----------|
e -5------3-2--5------3-2----------|

verse

bridge

chorus

interlude

again there is 2 dif guitars in the interlude, this is for interlude number 1, 4 guitar 1

e ---2-3-2----3---------|
b ---3-3-3----3---------|
g -2-2-2-2-x3-0---------|
d -2-0-0-0----0---------|
a -0--------------------|
e ------------3---------|

this is interlude number 2 4 guitar 2

e ------------------------------------------|
b ------------------------------------------|
g -9s11s12-11-9-7-9-7-9s11s12-11------------|
d --------------------------------5-5-------|
a --------------------------------5-5-x3----|
e --------------------------------3-2-------|

intro

bridge

chorus - u play the chorus twice in this bit, but when u play the second time only do 
strokes

interlude - only guitar 1 does the interlude

guitar 2 does this below

e ----10---10-10----10----10--10------------------|
b --10--10--------10--10---------x3---------------|
g -9------9--9--11------11--11--------------------|
d ------------------------------------5-5---------|
a ------------------------------------5-5-x3------|
e ------------------------------------3-2---------|

intro

so thats how u play nerina pallot's "everybody's gone to war"

if u think that there is any corrections then please email me at godisback4ever_17@hotmail.co.uk

and if u want me 2 tab anymore nerina pallot songs, then please ask me, but i will be 
up a few more up soon anyway
Tap to rate this tab
# A B C D E F G H I J K L M N O P Q R S T U V W X Y Z