Song name
# A B C D E F G H I J K L M N O P Q R S T U V W X Y Z

Nerina Pallot - All Good People tab

intro
GUITAR 2
e --------------------------------|
b -14H15P14-12-10----10-----------|
g ----------12----12-----X2-------|
d --------------------------------|
a --------------------------------|
e --------------------------------|

GUITAR 1
e ------------|
b -8-10-------|this is still played through the verse but slightly muted
g -7-8---x4---|
d -5-7--------|
a ------------|
e ------------|

verse
guitar 2
e --------------|
b --------------|
g --------------|
d -5-7---x4-----|
a -5-7----------|
e -3-5----------|

bridge

e --------------------------------|
b -2-3-5-7-5-8-10-12-14-15--x2----|
g --------------------------------|
d --------------------------------|
a --------------------------------|
e --------------------------------|

chorus

e ----------------------------------------|
b ----------------------------------------|
g ----------------------------------------|
d -------5---------7---5------------------|
a -5-7-5-8---x2----5-7-3-5----------------|the 2nd time finish on c
e -3-5-8-------------5---3----------------|

verse

bridge

chorus

solo

e -12-10-9-10-12-------------------------------|
b ---------------10-10-8-10-12-----------------|
g -----------------------------9-7-6-7-9-------|
d ---------------------------------------7-----|
a ---------------------------------------------|

bridge

chorus

1st half of chorus played twice then the other half played just once

ending play the first half of the chorus

THE END


so thats how u play nerina pallot's all good people

if u want me 2 tab any other songs just ask me via godisback4ever_17@hotmail.co.uk

bye bye bye bye bye bye bye





e ---------------------------------------------
Tap to rate this tab
# A B C D E F G H I J K L M N O P Q R S T U V W X Y Z