Song name
# A B C D E F G H I J K L M N O P Q R S T U V W X Y Z

Nero - Me And You tab

e-8-8-8-8-8-8-888-8-8-8-888-8-8-8-|
B---------------------------------|
G---------------------------------|
D---------------------------------|
A---------------------------------|
E---------------------------------|

e---8-7---10----------------|
B-----------8---------------|
G---------------------------|
D-5-----5-----5-7-8---7-5---|
A-5-----5-----5-7-8---7-5---|
E-3-----3-----3-5-6---5-3---|

Repeat this a few times and then the alternate bit goes like this;

e---8-7---10----------------|
B-----------8---------------|
G---------------------------|
D-5-----5-----5-7-8---7-5---|
A-5-----5-----5-7-8---7-5---|
E-3-----3-----3-5-6---5-3---|

e---8-7---10-----6-5---------|
B-----------8--------8-6-----|
G------------------------7-5-|
D-5-----5-----3--------------|
A-5-----5-----3--------------|
E-3-----3-----1--------------|


And that's as much as I can be bothered with right now!

Hope that saves you some time :)
Tap to rate this tab
 
# A B C D E F G H I J K L M N O P Q R S T U V W X Y Z