Song name
# A B C D E F G H I J K L M N O P Q R S T U V W X Y Z

Nero - Promises tab

***PLEASE NOTE***
THIS IS MY FIRST TAB

Artist: Nero
Song: Promises (Orignal Mix)
Album: Welcome Reality

Tabbed by Jared Roork

-SOLO TAB OF SINGING PARTS-

Done by ear So not 100% correct

---------------------------------------------------


Verse-

E--8-8-------------3--5-5--3-3------|
B------10--8-8------------------6-6-|
G-----------------------------------|  x 3
D-----------------------------------|
A-----------------------------------|
E-----------------------------------|


E--------3--5-5--3-3--------|
B--6-6----------------6-6---|
G---------------------------|   x 2
D---------------------------|
A---------------------------|
E---------------------------|


Chorus-

E-----------8-----10-10-10-10---|
B--6-6-6-6----10----------------|
G-------------------------------|
D-------------------------------|
A-------------------------------|
E-------------------------------|


E--8-10--12-12-12--8--10-8--------8-----|
B---------------------------10--8---10--|
G---------------------------------------|
D---------------------------------------|
A---------------------------------------|
E---------------------------------------|

!Listen To Song For Rhythm and Timing!

I will try to answer any questions @  jtapples5@gmail.com
Tap to rate this tab
# A B C D E F G H I J K L M N O P Q R S T U V W X Y Z