Song name
# A B C D E F G H I J K L M N O P Q R S T U V W X Y Z

Nerorgasmo - Passione Nera tab

Passione Nera
tab by Dori@s
per suggerimenti e segnalazione errori: doria-s@libero.it
A parte qualche imprecisione nell'assolo le note della canzone dovrebbero essere giuste,per quanto
riguarda la ritmica basta ascoltarsi la canzone.

STANDARD TUNING EADGBE

Riff 1
Lasciati aiutare vogliamo solo farti bene
Ti insegneremo a vivere e ad apprezzare l'esistenza
Poi non dovrai decidere il tuo futuro è preparato
Le scelte le hanno fatte famiglia scuola chiesa e stato
Riff 2
Mi sento soffocare non vedo via d'uscita
La nausea mi accompagna in ogni via della mia vita
La nebbia mi circonda e non riesco a vedere oltre
L'affermazione di me stesso è solo nella morte
Riff 1
Non devi lamentarti se non fai sempre ciò che vuoi
Non essere immaturo non puoi fare nulla per cambiare
Tanto è tutto inutile non sei diverso dall'altra gente
Le cose che tu pensi non porteranno mai a niente
Riff 2
L'odio cresce dentro il mio corpo vibra
Lo sento già pulsare attraverso ogni mia fibra
Non riesco a trattenermi non voglio più castrarmi
Più cresce la mia rabbia più non voglio limitarmi
Riff 1
Noi ti vogliamo bene sei tu che vedi tutto storto
Potevi far carriera potevi vivere felice
La tua passione nera ti fa pensare da alienato
Sei tu che devi cambiare il tuo discorso che è sbagliato
Riff 2
Non voglio più ascoltare progetti sul mio conto
Distruggerò alla base la vostra moralità
Affronterò gli spettri cosciente della fine
Esalterò me stesso con la morte più sublime
Assolo

Riff 1:A5 A5# G A5 C5 B5
Riff 2
E----------------------------------------------------|
B----------------------------------------------------|
G----------------------------------------------------|
D---7-7---10-10--7-7--10-10--7-7---10--7-10-9--------|
A--------------------------------------------10------|
E----------------------------------------------------|
Quando finisce la strofa suonare due volte A5

Assolo:
E--------------------------------------------------------------------|
B--------------------------------------------------------------------|
G--------------------------------------------------------------------|
D--------------------------------------------------------------------|
A----------8---------------8-----------9-9-9-9-9-9-9-8-9-9-9-9-9-9-9-|
E-6-6-8-9---9-8--6--6-8-9---9-7--6-----------------------------------| x2 e poi

E--------------|
G--------------|
D-6--8-8-------|
A----8-8-------|
E----6-6-------|

http://www.myspace.com/nerorgasmo
Tap to rate this tab
# A B C D E F G H I J K L M N O P Q R S T U V W X Y Z