Song name
# A B C D E F G H I J K L M N O P Q R S T U V W X Y Z

Nerve Agents - Next In Line tab

Nerve Agents - Next In Line
Submitted By: Kyle
EMail: GP121234@aol.com


/ = slide
^ = bend
H = harmonic

intro 1x
e|-----------------------------------------------------------
B|-----------------------------------------------------------
G|------------------------------3/5^-------------------------
D|--7---5----------------------------------------------------
A|--5---3---4------------------------------------------------
E|----------2------------------------------------------------

verse 2x
e|-----------------------------------------------------------
B|-----------------------------------------------------------
G|-----------------------------------------------------------
D|------7---5--------------7---------------------------------
A|--4---5---3---4---7------5---------------------------------
E|--2-----------2---5-5H-------------------------------------

chorus 1x
A|-----------------------------------------------------------
B|-----------------------------------------------------------
G|-----------------------------------------------------------
D|--2-------4-----2-------4-----2-------4--------7----9------
A|--0---4---2-----0---4---2-----0---4---2--------5----7------
E|------2-------------2-------------2------------------------

after 1st chorus
e|-----------------------------------------------------------
B|-----------------------------------------------------------
G|-----------------------------------------------------------
D|------2-------2--------------------------------------------
A|--4---0---4---0---4----------------------------------------
E|--2-------2-------2----------------------------------------

Then play verse
Then play chorus

after 2nd chorus
e|--------
B|--------
G|--------
D|--------
A|--4-----
E|--2-----
 PM .Then play chorus, then play the after 1st chorus part, then play the 
little slide and bend thing in the intro then hit an F#5. Have Fun!
Tap to rate this tab
# A B C D E F G H I J K L M N O P Q R S T U V W X Y Z