Guitaretab - guitar tabs
Song name
# A B C D E F G H I J K L M N O P Q R S T U V W X Y Z

Nerve Agents - Level 4 Outbreak tab

Nerve Agents - Level 4 Outbreak
Submitted By: Kyle
EMail: GP121234@aol.com


INTRO
e|--------------------------------------------------------------------------|
B|--------------------------------------------------------------------------|
G|--------------------------------------------------------------------------|
D|-4--4--------4------------------------------------------------------------|
A|-4--4--------4------------------------------------------------------------|
E|-6--6........6 scratch----------------------------------------------------|
[ Tab from: http://www.guitaretab.com/n/nerve-agents/42024.html ]
VERSE
e|--------------------------------------------------------------------------|
B|--------------------------------------------------------------------------|
G|-----------6-6-6-6-5-5-5-5------------------------------------------------|
D|-8-8-8-8-8-6-6-6-6-5-5-5-5------------------------------------------------|
A|-8-8-8-8-8-4-4-4-4-3-3-3-3------------------------------------------------|
E|-6-6-6-6-6----------------------------------------------------------------|

CHORUS
e|--------------------------------------------------------------------------|
B|--------------------------------------------------------------------------|
G|-----8-8---------10-10-9-9-----------------8-8------------10--------------|
D|-7-7-8-8-7-7-7---10-10-9-9--10-10------7-7-8-8-7-7--bass--10--------------|
A|-7-7-6-6-7-7-7---8--8--7-7--10-10------7-7-6-6-7-7--------8---------------|
E|-5-5-----5-5-5--------------8--8-------5-5-----5-5------------------------|

BREAKDOWN
e|--------------------------------------------------------------------------|
B|--------------------------------------------------------------------------|
G|-------9-9-9---------10-9-------------------------------------------------|
D|-7-7-7-9-9-9-9-9-9---10-9-10----------------------------------------------|
A|-7-7-7-7-7-7-9-9-9---8--7-10----------------------------------------------|
E|-5-5-5-------7-7-7--------8-----------------------------------------------|
Related for Level 4 Outbreak tab
Advertisement will be closed in 10 seconds