Song name
# A B C D E F G H I J K L M N O P Q R S T U V W X Y Z

Nervecell - Flesh And Memories tab

This is "Flesh and Memories" by Nervecell, a great band from United Arab Emirates (UAE).
is a kick-ass song from their "Preaching Venom" album, that you should totally check
All I have now is the intro, and the rest will be coming soon.. TO A THEATRE NEAR YOU!. 
Plus, I figured maybe someone else will use this and maybe figure some more out. Enjoy.

Tuning: Drop D (high to low - eBGDAD)
\ - slide
. - palm mute

Intro thingy
e|------------------|
B|------------------|
G|------------------|
D|------------------|
A|---4\3---4-5-66---|
D|---4\3-0-4-5-66---|
         .

Main Riff\Chorus (KICK ASS RIFF)

e|----------------------------------------------------------------------|
B|----------------------------------------------------------------------|
G|----------------------------------------------------------------------|
D|---0------------------------------3------4h5p4-----1------4h5p4-------|
A|---0------3---5---6---5---3---3h5-3------------6-5-1------------5-3---|
D|---0--0-0---0---0---0---0---0-----3--3-3-----------1--1-1-------------|
        . .   .   .   .   .   .        . .              . .

http://www.nervecell.net/
http://www.myspace.com/nervecell
Tap to rate this tab
# A B C D E F G H I J K L M N O P Q R S T U V W X Y Z