Song name
# A B C D E F G H I J K L M N O P Q R S T U V W X Y Z

Nesian Mystik - Sun Goes Down tab

Song: Sun Goes Down
Artist: Nesian Mystik
Tabbed by F4nt0m02 11/07/2012

This is a really fun song to play at parties and get togethers, Nesian Mystik are the 
best! Aotearoa represent!!

This is the bass and chords put together so one person can play this by themself. Credit 
goes to FLEP09 at 
http://www.youtube.com/watch?
v=6ovsgMmGn8g&list=PLB062E13DC75B589A&index=16&feature=plpp_video for putting the 
bass and guitar together. Play this riff for the intro and chorus and the chords D 
A Bm and G through the verses.



  D   A  Bm   G
|---|-5-|-7-|-3-|
|-7-|-5-|-7-|-3-|
|-7-|-5-|-7-|-3-|
|-7-|-6-|-7-|-4-|
|-7-|-7-|-9-|-5-|
|-5-|-7-|-9-|-5-|
|---|-5-|-7-|-3-|



   D                     A               Bm                 G
E|---7-----7-----7-----7---5------5---5---7-----7---7-----7---3----3---3-|
B|---7-----7-----7-----7---5------5---5---7-----7---7-----7---3----3---3-|
G|---7-----7-----7-----7---6------6---6---7-----7---7-----7---4----4---4-|
D|-----------7h9-7-----7-------------------------------------------------|
A|-5---7/9---------7h9------------7-7-------9-9-7-----9-9-7--------5-5---|
e|-----------------------5----7/9--------7--------7---------3---5/7------|
Tap to rate this tab
# A B C D E F G H I J K L M N O P Q R S T U V W X Y Z