Song name
# A B C D E F G H I J K L M N O P Q R S T U V W X Y Z

Nesian Mystik - Mr Mista tab

-------------------------------------------------------------------------------
                             Mr mista - Nesian mystik
-------------------------------------------------------------------------------
Tabbed by:Marley Smith
E-mail:marley.smith12@hotmail.com
First tab so please dont judge, i only learnt this by ear so yeah...
Tuning:standard

e|---------5/7-------7/9--------------------------------------------------|
B|--7--7---5/7---9---7/9--10----------------------------------------------|
G|--6--6---------9--------11----------------------------------------------|
D|------------------------------------------------------------------------|
A|--5--5---------7--------9-----------------------------------------------|
E|------------------------------------------------------------------------|


Just repeat through the whole song
Tap to rate this tab
# A B C D E F G H I J K L M N O P Q R S T U V W X Y Z