Song name
# A B C D E F G H I J K L M N O P Q R S T U V W X Y Z

Netsky - We Can Only Live Today Puppy tab

We Can Only Live Today
Netsky

I play this on a Ibanez RG. I use a little distortion, a ittle chorus and a little reverb.
Note that this a "freestyle tab". 
Feel free to add notes or repeat a note twice. As long as it sounds good to you. 
This tab is just the basic line.

Tuning: EADGBE

Chord Progression:   
Em   C    G   F
   Melody Part
E||--------------------|------------------20--19-------------|
B||-----------15-17----|----17-17h19-19----------------------|
G||-----14-16----------|-------------------------------------|
D||--14----------------|-------------------------------------|
A||--------------------|-------------------------------------|
E||--------------------|-------------------------------------|

E||--------------------|-------------------------------------|
B||--------------------|-------------------------------------|
G||-----12h14-12-------|------12h14-12-----------------------|
D||--14----------14---(x)--14----------14--------------------|
A||--------------------|-------------------------------------|
E||--------------------|-------------------------------------|

   At (x) you can play this:
E||---------------------------------------------------------|
B||---------------------------------------------------------|
G||---------------------------------------------------------|
D||--14-12h14-----------------------------------------------|
A||---------------------------------------------------------|
E||---------------------------------------------------------|

  Tapping Part: (0:49)
E||---------------------------------------------------------|
B||--12h15p12h15--t17-15p12h15------------------------------|
G||---------------------------------------------------------|
D||--------------------------------repeat a few times!------|
A||---------------------------------------------------------|
E||---------------------------------------------------------|


Next Vocal Part: (2:03)

G  Am  F  C
Tap to rate this tab
# A B C D E F G H I J K L M N O P Q R S T U V W X Y Z