Song name
# A B C D E F G H I J K L M N O P Q R S T U V W X Y Z

Network - Spastic Society tab

Help us improve GuitareTab! Take a short survey!
SPASTIC SOCIETY- By The Network (money money 2020)

Normal tuning,

Hold the notes in power chord form,

Each dash = a 16th note                               
                
Each section = 1 bar

Hi my name is Jon H' and i thought i'd add to the collection of Network tabs.
I've even done the rhythm for you. 


Riff 1 (4 bars)

e|--|----------------|----------------|----------------|----------------|
B|--|----------------|----------------|----------------|----------------|
G|--|----------------|----------------|----------------|----------------|
D|--|----------------|----------------|----------------|----------------|
A|--|----9-----------|----5-----------|----9-----------|----5-------7---|
E|--|7-7---7---------|3-3---3---------|7-7---7---------|3-3---3-5-5---5-|

     1 . 2 . 3 . 4 .  1 . 2 . 3 . 4 .  1 . 2 . 3 . 4 .  1 . 2 . 3 . 4 .

Riff 2 (4 bars)

e|--|----------------|----------------|----------------|----------------|
B|--|----------------|----------------|----------------|----------------|
G|--|----------------|----------------|----------------|----------------|
D|--|----------------|----------------|----------------|--------7-------|
A|--|----9-----------|----5-----------|----7-------7---|----7-------7---|
E|--|7-7---7---------|3-3---3---------|5-5---5-5-5---5-|5-5---5---5---5-|

     1 . 2 . 3 . 4 .  1 . 2 . 3 . 4 .  1 . 2 . 3 . 4 .  1 . 2 . 3 . 4 .

Chorus (4 bars)

e|--|----------------|----------------|----------------|----------------|
B|--|----------------|----------------|----------------|----------------|
G|--|----------------|----------------|----------------|----------------|
D|--|----4-----------|----4-----------|----4-----------|----------------|
A|--|2-2---2-----5---|2-2---2-----5---|2-2---2-----5---|----7-------7---|
E|--|--------3-3---3-|--------3-3---3-|--------3-3---3-|5-5---5-5-5---5-|

     1 . 2 . 3 . 4 .  1 . 2 . 3 . 4 .  1 . 2 . 3 . 4 .  1 . 2 . 3 . 4 .

     Spastic Society  Spastic Society  Spastic Society  Now we're livin in- a-

(the song does have alot of truth in it)
Related for Spastic Society tab